ISO-10303-21;
HEADER;
FILE_DESCRIPTION((''),'2;1');
FILE_NAME('NGRMP3040','2016-12-01T',('kjell_andersson'),(''),
'PRO/ENGINEER BY PARAMETRIC TECHNOLOGY CORPORATION, 2013230',
'PRO/ENGINEER BY PARAMETRIC TECHNOLOGY CORPORATION, 2013230','');
FILE_SCHEMA(('CONFIG_CONTROL_DESIGN'));
ENDSEC;
DATA;
#1=CARTESIAN_POINT('',(-1.69E2,0.E0,-1.11E2));
#2=DIRECTION('',(0.E0,-1.E0,0.E0));
#3=DIRECTION('',(1.E0,0.E0,0.E0));
#4=AXIS2_PLACEMENT_3D('',#1,#2,#3);
#6=CARTESIAN_POINT('',(-1.69E2,0.E0,-1.11E2));
#7=DIRECTION('',(0.E0,-1.E0,0.E0));
#8=DIRECTION('',(-1.E0,0.E0,0.E0));
#9=AXIS2_PLACEMENT_3D('',#6,#7,#8);
#11=CARTESIAN_POINT('',(1.69E2,0.E0,-1.11E2));
#12=DIRECTION('',(0.E0,-1.E0,0.E0));
#13=DIRECTION('',(1.E0,0.E0,0.E0));
#14=AXIS2_PLACEMENT_3D('',#11,#12,#13);
#16=CARTESIAN_POINT('',(1.69E2,0.E0,-1.11E2));
#17=DIRECTION('',(0.E0,-1.E0,0.E0));
#18=DIRECTION('',(-1.E0,0.E0,0.E0));
#19=AXIS2_PLACEMENT_3D('',#16,#17,#18);
#21=CARTESIAN_POINT('',(1.69E2,0.E0,1.11E2));
#22=DIRECTION('',(0.E0,-1.E0,0.E0));
#23=DIRECTION('',(1.E0,0.E0,0.E0));
#24=AXIS2_PLACEMENT_3D('',#21,#22,#23);
#26=CARTESIAN_POINT('',(1.69E2,0.E0,1.11E2));
#27=DIRECTION('',(0.E0,-1.E0,0.E0));
#28=DIRECTION('',(-1.E0,0.E0,0.E0));
#29=AXIS2_PLACEMENT_3D('',#26,#27,#28);
#31=CARTESIAN_POINT('',(-1.69E2,0.E0,1.11E2));
#32=DIRECTION('',(0.E0,-1.E0,0.E0));
#33=DIRECTION('',(1.E0,0.E0,0.E0));
#34=AXIS2_PLACEMENT_3D('',#31,#32,#33);
#36=CARTESIAN_POINT('',(-1.69E2,0.E0,1.11E2));
#37=DIRECTION('',(0.E0,-1.E0,0.E0));
#38=DIRECTION('',(-1.E0,0.E0,0.E0));
#39=AXIS2_PLACEMENT_3D('',#36,#37,#38);
#41=DIRECTION('',(9.356017189507E-1,0.E0,3.530572524342E-1));
#42=VECTOR('',#41,2.832401807654E1);
#43=CARTESIAN_POINT('',(-1.79E2,0.E0,1.2E2));
#44=LINE('',#43,#42);
#45=DIRECTION('',(1.E0,0.E0,0.E0));
#46=VECTOR('',#45,3.05E2);
#47=CARTESIAN_POINT('',(-1.525E2,0.E0,1.3E2));
#48=LINE('',#47,#46);
#49=DIRECTION('',(9.356017189507E-1,0.E0,-3.530572524342E-1));
#50=VECTOR('',#49,2.832401807654E1);
#51=CARTESIAN_POINT('',(1.525E2,0.E0,1.3E2));
#52=LINE('',#51,#50);
#53=DIRECTION('',(0.E0,0.E0,-1.E0));
#54=VECTOR('',#53,2.4E2);
#55=CARTESIAN_POINT('',(1.79E2,0.E0,1.2E2));
#56=LINE('',#55,#54);
#57=DIRECTION('',(-9.356017189507E-1,0.E0,-3.530572524342E-1));
#58=VECTOR('',#57,2.832401807654E1);
#59=CARTESIAN_POINT('',(1.79E2,0.E0,-1.2E2));
#60=LINE('',#59,#58);
#61=DIRECTION('',(-1.E0,0.E0,0.E0));
#62=VECTOR('',#61,3.05E2);
#63=CARTESIAN_POINT('',(1.525E2,0.E0,-1.3E2));
#64=LINE('',#63,#62);
#65=DIRECTION('',(-9.356017189507E-1,0.E0,3.530572524342E-1));
#66=VECTOR('',#65,2.832401807654E1);
#67=CARTESIAN_POINT('',(-1.525E2,0.E0,-1.3E2));
#68=LINE('',#67,#66);
#69=DIRECTION('',(0.E0,0.E0,1.E0));
#70=VECTOR('',#69,2.4E2);
#71=CARTESIAN_POINT('',(-1.79E2,0.E0,-1.2E2));
#72=LINE('',#71,#70);
#73=DIRECTION('',(0.E0,1.E0,0.E0));
#74=VECTOR('',#73,4.E0);
#75=CARTESIAN_POINT('',(-1.655E2,0.E0,-1.11E2));
#76=LINE('',#75,#74);
#77=DIRECTION('',(0.E0,1.E0,0.E0));
#78=VECTOR('',#77,4.E0);
#79=CARTESIAN_POINT('',(-1.725E2,0.E0,-1.11E2));
#80=LINE('',#79,#78);
#81=CARTESIAN_POINT('',(-1.69E2,4.E0,-1.11E2));
#82=DIRECTION('',(0.E0,-1.E0,0.E0));
#83=DIRECTION('',(1.E0,0.E0,0.E0));
#84=AXIS2_PLACEMENT_3D('',#81,#82,#83);
#86=CARTESIAN_POINT('',(-1.69E2,4.E0,-1.11E2));
#87=DIRECTION('',(0.E0,-1.E0,0.E0));
#88=DIRECTION('',(-1.E0,0.E0,0.E0));
#89=AXIS2_PLACEMENT_3D('',#86,#87,#88);
#91=CARTESIAN_POINT('',(1.69E2,4.E0,-1.11E2));
#92=DIRECTION('',(0.E0,-1.E0,0.E0));
#93=DIRECTION('',(1.E0,0.E0,0.E0));
#94=AXIS2_PLACEMENT_3D('',#91,#92,#93);
#96=CARTESIAN_POINT('',(1.69E2,4.E0,-1.11E2));
#97=DIRECTION('',(0.E0,-1.E0,0.E0));
#98=DIRECTION('',(-1.E0,0.E0,0.E0));
#99=AXIS2_PLACEMENT_3D('',#96,#97,#98);
#101=CARTESIAN_POINT('',(1.69E2,4.E0,1.11E2));
#102=DIRECTION('',(0.E0,-1.E0,0.E0));
#103=DIRECTION('',(1.E0,0.E0,0.E0));
#104=AXIS2_PLACEMENT_3D('',#101,#102,#103);
#106=CARTESIAN_POINT('',(1.69E2,4.E0,1.11E2));
#107=DIRECTION('',(0.E0,-1.E0,0.E0));
#108=DIRECTION('',(-1.E0,0.E0,0.E0));
#109=AXIS2_PLACEMENT_3D('',#106,#107,#108);
#111=CARTESIAN_POINT('',(-1.69E2,4.E0,1.11E2));
#112=DIRECTION('',(0.E0,-1.E0,0.E0));
#113=DIRECTION('',(1.E0,0.E0,0.E0));
#114=AXIS2_PLACEMENT_3D('',#111,#112,#113);
#116=CARTESIAN_POINT('',(-1.69E2,4.E0,1.11E2));
#117=DIRECTION('',(0.E0,-1.E0,0.E0));
#118=DIRECTION('',(-1.E0,0.E0,0.E0));
#119=AXIS2_PLACEMENT_3D('',#116,#117,#118);
#121=DIRECTION('',(9.356017189507E-1,0.E0,3.530572524342E-1));
#122=VECTOR('',#121,2.832401807654E1);
#123=CARTESIAN_POINT('',(-1.79E2,4.E0,1.2E2));
#124=LINE('',#123,#122);
#125=DIRECTION('',(0.E0,0.E0,1.E0));
#126=VECTOR('',#125,2.4E2);
#127=CARTESIAN_POINT('',(-1.79E2,4.E0,-1.2E2));
#128=LINE('',#127,#126);
#129=DIRECTION('',(-9.356017189507E-1,0.E0,3.530572524342E-1));
#130=VECTOR('',#129,2.832401807654E1);
#131=CARTESIAN_POINT('',(-1.525E2,4.E0,-1.3E2));
#132=LINE('',#131,#130);
#133=DIRECTION('',(-1.E0,0.E0,0.E0));
#134=VECTOR('',#133,3.05E2);
#135=CARTESIAN_POINT('',(1.525E2,4.E0,-1.3E2));
#136=LINE('',#135,#134);
#137=DIRECTION('',(-9.356017189507E-1,0.E0,-3.530572524342E-1));
#138=VECTOR('',#137,2.832401807654E1);
#139=CARTESIAN_POINT('',(1.79E2,4.E0,-1.2E2));
#140=LINE('',#139,#138);
#141=DIRECTION('',(0.E0,0.E0,-1.E0));
#142=VECTOR('',#141,2.4E2);
#143=CARTESIAN_POINT('',(1.79E2,4.E0,1.2E2));
#144=LINE('',#143,#142);
#145=DIRECTION('',(9.356017189507E-1,0.E0,-3.530572524342E-1));
#146=VECTOR('',#145,2.832401807654E1);
#147=CARTESIAN_POINT('',(1.525E2,4.E0,1.3E2));
#148=LINE('',#147,#146);
#149=DIRECTION('',(1.E0,0.E0,0.E0));
#150=VECTOR('',#149,3.05E2);
#151=CARTESIAN_POINT('',(-1.525E2,4.E0,1.3E2));
#152=LINE('',#151,#150);
#153=DIRECTION('',(0.E0,1.E0,0.E0));
#154=VECTOR('',#153,4.E0);
#155=CARTESIAN_POINT('',(1.725E2,0.E0,-1.11E2));
#156=LINE('',#155,#154);
#157=DIRECTION('',(0.E0,1.E0,0.E0));
#158=VECTOR('',#157,4.E0);
#159=CARTESIAN_POINT('',(1.655E2,0.E0,-1.11E2));
#160=LINE('',#159,#158);
#161=DIRECTION('',(0.E0,1.E0,0.E0));
#162=VECTOR('',#161,4.E0);
#163=CARTESIAN_POINT('',(1.725E2,0.E0,1.11E2));
#164=LINE('',#163,#162);
#165=DIRECTION('',(0.E0,1.E0,0.E0));
#166=VECTOR('',#165,4.E0);
#167=CARTESIAN_POINT('',(1.655E2,0.E0,1.11E2));
#168=LINE('',#167,#166);
#169=DIRECTION('',(0.E0,1.E0,0.E0));
#170=VECTOR('',#169,4.E0);
#171=CARTESIAN_POINT('',(-1.655E2,0.E0,1.11E2));
#172=LINE('',#171,#170);
#173=DIRECTION('',(0.E0,1.E0,0.E0));
#174=VECTOR('',#173,4.E0);
#175=CARTESIAN_POINT('',(-1.725E2,0.E0,1.11E2));
#176=LINE('',#175,#174);
#177=DIRECTION('',(0.E0,1.E0,0.E0));
#178=VECTOR('',#177,4.E0);
#179=CARTESIAN_POINT('',(-1.79E2,0.E0,1.2E2));
#180=LINE('',#179,#178);
#181=DIRECTION('',(0.E0,1.E0,0.E0));
#182=VECTOR('',#181,4.E0);
#183=CARTESIAN_POINT('',(-1.79E2,0.E0,-1.2E2));
#184=LINE('',#183,#182);
#185=DIRECTION('',(0.E0,1.E0,0.E0));
#186=VECTOR('',#185,4.E0);
#187=CARTESIAN_POINT('',(-1.525E2,0.E0,-1.3E2));
#188=LINE('',#187,#186);
#189=DIRECTION('',(0.E0,1.E0,0.E0));
#190=VECTOR('',#189,4.E0);
#191=CARTESIAN_POINT('',(1.525E2,0.E0,-1.3E2));
#192=LINE('',#191,#190);
#193=DIRECTION('',(0.E0,1.E0,0.E0));
#194=VECTOR('',#193,4.E0);
#195=CARTESIAN_POINT('',(1.79E2,0.E0,-1.2E2));
#196=LINE('',#195,#194);
#197=DIRECTION('',(0.E0,1.E0,0.E0));
#198=VECTOR('',#197,4.E0);
#199=CARTESIAN_POINT('',(1.79E2,0.E0,1.2E2));
#200=LINE('',#199,#198);
#201=DIRECTION('',(0.E0,1.E0,0.E0));
#202=VECTOR('',#201,4.E0);
#203=CARTESIAN_POINT('',(1.525E2,0.E0,1.3E2));
#204=LINE('',#203,#202);
#205=DIRECTION('',(0.E0,1.E0,0.E0));
#206=VECTOR('',#205,4.E0);
#207=CARTESIAN_POINT('',(-1.525E2,0.E0,1.3E2));
#208=LINE('',#207,#206);
#209=CARTESIAN_POINT('',(-1.655E2,0.E0,-1.11E2));
#210=CARTESIAN_POINT('',(-1.725E2,0.E0,-1.11E2));
#211=VERTEX_POINT('',#209);
#212=VERTEX_POINT('',#210);
#213=CARTESIAN_POINT('',(1.725E2,0.E0,-1.11E2));
#214=CARTESIAN_POINT('',(1.655E2,0.E0,-1.11E2));
#215=VERTEX_POINT('',#213);
#216=VERTEX_POINT('',#214);
#217=CARTESIAN_POINT('',(1.725E2,0.E0,1.11E2));
#218=CARTESIAN_POINT('',(1.655E2,0.E0,1.11E2));
#219=VERTEX_POINT('',#217);
#220=VERTEX_POINT('',#218);
#221=CARTESIAN_POINT('',(-1.655E2,0.E0,1.11E2));
#222=CARTESIAN_POINT('',(-1.725E2,0.E0,1.11E2));
#223=VERTEX_POINT('',#221);
#224=VERTEX_POINT('',#222);
#225=CARTESIAN_POINT('',(-1.79E2,0.E0,1.2E2));
#226=CARTESIAN_POINT('',(-1.525E2,0.E0,1.3E2));
#227=VERTEX_POINT('',#225);
#228=VERTEX_POINT('',#226);
#229=CARTESIAN_POINT('',(1.525E2,0.E0,1.3E2));
#230=VERTEX_POINT('',#229);
#231=CARTESIAN_POINT('',(1.79E2,0.E0,1.2E2));
#232=VERTEX_POINT('',#231);
#233=CARTESIAN_POINT('',(1.79E2,0.E0,-1.2E2));
#234=VERTEX_POINT('',#233);
#235=CARTESIAN_POINT('',(1.525E2,0.E0,-1.3E2));
#236=VERTEX_POINT('',#235);
#237=CARTESIAN_POINT('',(-1.525E2,0.E0,-1.3E2));
#238=VERTEX_POINT('',#237);
#239=CARTESIAN_POINT('',(-1.79E2,0.E0,-1.2E2));
#240=VERTEX_POINT('',#239);
#241=CARTESIAN_POINT('',(-1.655E2,4.E0,-1.11E2));
#242=CARTESIAN_POINT('',(-1.725E2,4.E0,-1.11E2));
#243=VERTEX_POINT('',#241);
#244=VERTEX_POINT('',#242);
#245=CARTESIAN_POINT('',(1.725E2,4.E0,-1.11E2));
#246=CARTESIAN_POINT('',(1.655E2,4.E0,-1.11E2));
#247=VERTEX_POINT('',#245);
#248=VERTEX_POINT('',#246);
#249=CARTESIAN_POINT('',(1.725E2,4.E0,1.11E2));
#250=CARTESIAN_POINT('',(1.655E2,4.E0,1.11E2));
#251=VERTEX_POINT('',#249);
#252=VERTEX_POINT('',#250);
#253=CARTESIAN_POINT('',(-1.655E2,4.E0,1.11E2));
#254=CARTESIAN_POINT('',(-1.725E2,4.E0,1.11E2));
#255=VERTEX_POINT('',#253);
#256=VERTEX_POINT('',#254);
#257=CARTESIAN_POINT('',(-1.79E2,4.E0,1.2E2));
#258=CARTESIAN_POINT('',(-1.525E2,4.E0,1.3E2));
#259=VERTEX_POINT('',#257);
#260=VERTEX_POINT('',#258);
#261=CARTESIAN_POINT('',(1.525E2,4.E0,1.3E2));
#262=VERTEX_POINT('',#261);
#263=CARTESIAN_POINT('',(1.79E2,4.E0,1.2E2));
#264=VERTEX_POINT('',#263);
#265=CARTESIAN_POINT('',(1.79E2,4.E0,-1.2E2));
#266=VERTEX_POINT('',#265);
#267=CARTESIAN_POINT('',(1.525E2,4.E0,-1.3E2));
#268=VERTEX_POINT('',#267);
#269=CARTESIAN_POINT('',(-1.525E2,4.E0,-1.3E2));
#270=VERTEX_POINT('',#269);
#271=CARTESIAN_POINT('',(-1.79E2,4.E0,-1.2E2));
#272=VERTEX_POINT('',#271);
#273=CARTESIAN_POINT('',(0.E0,0.E0,0.E0));
#274=DIRECTION('',(0.E0,1.E0,0.E0));
#275=DIRECTION('',(1.E0,0.E0,0.E0));
#276=AXIS2_PLACEMENT_3D('',#273,#274,#275);
#277=PLANE('',#276);
#279=ORIENTED_EDGE('',*,*,#278,.T.);
#281=ORIENTED_EDGE('',*,*,#280,.T.);
#283=ORIENTED_EDGE('',*,*,#282,.T.);
#285=ORIENTED_EDGE('',*,*,#284,.T.);
#287=ORIENTED_EDGE('',*,*,#286,.T.);
#289=ORIENTED_EDGE('',*,*,#288,.T.);
#291=ORIENTED_EDGE('',*,*,#290,.T.);
#293=ORIENTED_EDGE('',*,*,#292,.T.);
#294=EDGE_LOOP('',(#279,#281,#283,#285,#287,#289,#291,#293));
#295=FACE_OUTER_BOUND('',#294,.F.);
#297=ORIENTED_EDGE('',*,*,#296,.T.);
#299=ORIENTED_EDGE('',*,*,#298,.T.);
#300=EDGE_LOOP('',(#297,#299));
#301=FACE_BOUND('',#300,.F.);
#303=ORIENTED_EDGE('',*,*,#302,.T.);
#305=ORIENTED_EDGE('',*,*,#304,.T.);
#306=EDGE_LOOP('',(#303,#305));
#307=FACE_BOUND('',#306,.F.);
#309=ORIENTED_EDGE('',*,*,#308,.T.);
#311=ORIENTED_EDGE('',*,*,#310,.T.);
#312=EDGE_LOOP('',(#309,#311));
#313=FACE_BOUND('',#312,.F.);
#315=ORIENTED_EDGE('',*,*,#314,.T.);
#317=ORIENTED_EDGE('',*,*,#316,.T.);
#318=EDGE_LOOP('',(#315,#317));
#319=FACE_BOUND('',#318,.F.);
#320=ADVANCED_FACE('',(#295,#301,#307,#313,#319),#277,.F.);
#321=CARTESIAN_POINT('',(-1.69E2,0.E0,-1.11E2));
#322=DIRECTION('',(0.E0,1.E0,0.E0));
#323=DIRECTION('',(1.E0,0.E0,0.E0));
#324=AXIS2_PLACEMENT_3D('',#321,#322,#323);
#325=CYLINDRICAL_SURFACE('',#324,3.5E0);
#326=ORIENTED_EDGE('',*,*,#314,.F.);
#328=ORIENTED_EDGE('',*,*,#327,.T.);
#330=ORIENTED_EDGE('',*,*,#329,.T.);
#332=ORIENTED_EDGE('',*,*,#331,.F.);
#333=EDGE_LOOP('',(#326,#328,#330,#332));
#334=FACE_OUTER_BOUND('',#333,.F.);
#335=ADVANCED_FACE('',(#334),#325,.F.);
#336=CARTESIAN_POINT('',(-1.69E2,0.E0,-1.11E2));
#337=DIRECTION('',(0.E0,1.E0,0.E0));
#338=DIRECTION('',(1.E0,0.E0,0.E0));
#339=AXIS2_PLACEMENT_3D('',#336,#337,#338);
#340=CYLINDRICAL_SURFACE('',#339,3.5E0);
#341=ORIENTED_EDGE('',*,*,#316,.F.);
#342=ORIENTED_EDGE('',*,*,#331,.T.);
#344=ORIENTED_EDGE('',*,*,#343,.T.);
#345=ORIENTED_EDGE('',*,*,#327,.F.);
#346=EDGE_LOOP('',(#341,#342,#344,#345));
#347=FACE_OUTER_BOUND('',#346,.F.);
#348=ADVANCED_FACE('',(#347),#340,.F.);
#349=CARTESIAN_POINT('',(0.E0,4.E0,0.E0));
#350=DIRECTION('',(0.E0,1.E0,0.E0));
#351=DIRECTION('',(1.E0,0.E0,0.E0));
#352=AXIS2_PLACEMENT_3D('',#349,#350,#351);
#353=PLANE('',#352);
#355=ORIENTED_EDGE('',*,*,#354,.F.);
#357=ORIENTED_EDGE('',*,*,#356,.F.);
#359=ORIENTED_EDGE('',*,*,#358,.F.);
#361=ORIENTED_EDGE('',*,*,#360,.F.);
#363=ORIENTED_EDGE('',*,*,#362,.F.);
#365=ORIENTED_EDGE('',*,*,#364,.F.);
#367=ORIENTED_EDGE('',*,*,#366,.F.);
#369=ORIENTED_EDGE('',*,*,#368,.F.);
#370=EDGE_LOOP('',(#355,#357,#359,#361,#363,#365,#367,#369));
#371=FACE_OUTER_BOUND('',#370,.F.);
#373=ORIENTED_EDGE('',*,*,#372,.F.);
#375=ORIENTED_EDGE('',*,*,#374,.F.);
#376=EDGE_LOOP('',(#373,#375));
#377=FACE_BOUND('',#376,.F.);
#379=ORIENTED_EDGE('',*,*,#378,.F.);
#381=ORIENTED_EDGE('',*,*,#380,.F.);
#382=EDGE_LOOP('',(#379,#381));
#383=FACE_BOUND('',#382,.F.);
#385=ORIENTED_EDGE('',*,*,#384,.F.);
#387=ORIENTED_EDGE('',*,*,#386,.F.);
#388=EDGE_LOOP('',(#385,#387));
#389=FACE_BOUND('',#388,.F.);
#390=ORIENTED_EDGE('',*,*,#329,.F.);
#391=ORIENTED_EDGE('',*,*,#343,.F.);
#392=EDGE_LOOP('',(#390,#391));
#393=FACE_BOUND('',#392,.F.);
#394=ADVANCED_FACE('',(#371,#377,#383,#389,#393),#353,.T.);
#395=CARTESIAN_POINT('',(1.69E2,0.E0,-1.11E2));
#396=DIRECTION('',(0.E0,1.E0,0.E0));
#397=DIRECTION('',(1.E0,0.E0,0.E0));
#398=AXIS2_PLACEMENT_3D('',#395,#396,#397);
#399=CYLINDRICAL_SURFACE('',#398,3.5E0);
#400=ORIENTED_EDGE('',*,*,#296,.F.);
#402=ORIENTED_EDGE('',*,*,#401,.T.);
#403=ORIENTED_EDGE('',*,*,#372,.T.);
#405=ORIENTED_EDGE('',*,*,#404,.F.);
#406=EDGE_LOOP('',(#400,#402,#403,#405));
#407=FACE_OUTER_BOUND('',#406,.F.);
#408=ADVANCED_FACE('',(#407),#399,.F.);
#409=CARTESIAN_POINT('',(1.69E2,0.E0,-1.11E2));
#410=DIRECTION('',(0.E0,1.E0,0.E0));
#411=DIRECTION('',(1.E0,0.E0,0.E0));
#412=AXIS2_PLACEMENT_3D('',#409,#410,#411);
#413=CYLINDRICAL_SURFACE('',#412,3.5E0);
#414=ORIENTED_EDGE('',*,*,#298,.F.);
#415=ORIENTED_EDGE('',*,*,#404,.T.);
#416=ORIENTED_EDGE('',*,*,#374,.T.);
#417=ORIENTED_EDGE('',*,*,#401,.F.);
#418=EDGE_LOOP('',(#414,#415,#416,#417));
#419=FACE_OUTER_BOUND('',#418,.F.);
#420=ADVANCED_FACE('',(#419),#413,.F.);
#421=CARTESIAN_POINT('',(1.69E2,0.E0,1.11E2));
#422=DIRECTION('',(0.E0,1.E0,0.E0));
#423=DIRECTION('',(1.E0,0.E0,0.E0));
#424=AXIS2_PLACEMENT_3D('',#421,#422,#423);
#425=CYLINDRICAL_SURFACE('',#424,3.5E0);
#426=ORIENTED_EDGE('',*,*,#302,.F.);
#428=ORIENTED_EDGE('',*,*,#427,.T.);
#429=ORIENTED_EDGE('',*,*,#378,.T.);
#431=ORIENTED_EDGE('',*,*,#430,.F.);
#432=EDGE_LOOP('',(#426,#428,#429,#431));
#433=FACE_OUTER_BOUND('',#432,.F.);
#434=ADVANCED_FACE('',(#433),#425,.F.);
#435=CARTESIAN_POINT('',(1.69E2,0.E0,1.11E2));
#436=DIRECTION('',(0.E0,1.E0,0.E0));
#437=DIRECTION('',(1.E0,0.E0,0.E0));
#438=AXIS2_PLACEMENT_3D('',#435,#436,#437);
#439=CYLINDRICAL_SURFACE('',#438,3.5E0);
#440=ORIENTED_EDGE('',*,*,#304,.F.);
#441=ORIENTED_EDGE('',*,*,#430,.T.);
#442=ORIENTED_EDGE('',*,*,#380,.T.);
#443=ORIENTED_EDGE('',*,*,#427,.F.);
#444=EDGE_LOOP('',(#440,#441,#442,#443));
#445=FACE_OUTER_BOUND('',#444,.F.);
#446=ADVANCED_FACE('',(#445),#439,.F.);
#447=CARTESIAN_POINT('',(-1.69E2,0.E0,1.11E2));
#448=DIRECTION('',(0.E0,1.E0,0.E0));
#449=DIRECTION('',(1.E0,0.E0,0.E0));
#450=AXIS2_PLACEMENT_3D('',#447,#448,#449);
#451=CYLINDRICAL_SURFACE('',#450,3.5E0);
#452=ORIENTED_EDGE('',*,*,#308,.F.);
#454=ORIENTED_EDGE('',*,*,#453,.T.);
#455=ORIENTED_EDGE('',*,*,#384,.T.);
#457=ORIENTED_EDGE('',*,*,#456,.F.);
#458=EDGE_LOOP('',(#452,#454,#455,#457));
#459=FACE_OUTER_BOUND('',#458,.F.);
#460=ADVANCED_FACE('',(#459),#451,.F.);
#461=CARTESIAN_POINT('',(-1.69E2,0.E0,1.11E2));
#462=DIRECTION('',(0.E0,1.E0,0.E0));
#463=DIRECTION('',(1.E0,0.E0,0.E0));
#464=AXIS2_PLACEMENT_3D('',#461,#462,#463);
#465=CYLINDRICAL_SURFACE('',#464,3.5E0);
#466=ORIENTED_EDGE('',*,*,#310,.F.);
#467=ORIENTED_EDGE('',*,*,#456,.T.);
#468=ORIENTED_EDGE('',*,*,#386,.T.);
#469=ORIENTED_EDGE('',*,*,#453,.F.);
#470=EDGE_LOOP('',(#466,#467,#468,#469));
#471=FACE_OUTER_BOUND('',#470,.F.);
#472=ADVANCED_FACE('',(#471),#465,.F.);
#473=CARTESIAN_POINT('',(-1.79E2,0.E0,1.2E2));
#474=DIRECTION('',(-3.530572524342E-1,0.E0,9.356017189507E-1));
#475=DIRECTION('',(9.356017189507E-1,0.E0,3.530572524342E-1));
#476=AXIS2_PLACEMENT_3D('',#473,#474,#475);
#477=PLANE('',#476);
#478=ORIENTED_EDGE('',*,*,#278,.F.);
#480=ORIENTED_EDGE('',*,*,#479,.T.);
#481=ORIENTED_EDGE('',*,*,#354,.T.);
#483=ORIENTED_EDGE('',*,*,#482,.F.);
#484=EDGE_LOOP('',(#478,#480,#481,#483));
#485=FACE_OUTER_BOUND('',#484,.F.);
#486=ADVANCED_FACE('',(#485),#477,.T.);
#487=CARTESIAN_POINT('',(-1.79E2,0.E0,-1.2E2));
#488=DIRECTION('',(-1.E0,0.E0,0.E0));
#489=DIRECTION('',(0.E0,0.E0,1.E0));
#490=AXIS2_PLACEMENT_3D('',#487,#488,#489);
#491=PLANE('',#490);
#492=ORIENTED_EDGE('',*,*,#292,.F.);
#494=ORIENTED_EDGE('',*,*,#493,.T.);
#495=ORIENTED_EDGE('',*,*,#356,.T.);
#496=ORIENTED_EDGE('',*,*,#479,.F.);
#497=EDGE_LOOP('',(#492,#494,#495,#496));
#498=FACE_OUTER_BOUND('',#497,.F.);
#499=ADVANCED_FACE('',(#498),#491,.T.);
#500=CARTESIAN_POINT('',(-1.525E2,0.E0,-1.3E2));
#501=DIRECTION('',(-3.530572524342E-1,0.E0,-9.356017189507E-1));
#502=DIRECTION('',(-9.356017189507E-1,0.E0,3.530572524342E-1));
#503=AXIS2_PLACEMENT_3D('',#500,#501,#502);
#504=PLANE('',#503);
#505=ORIENTED_EDGE('',*,*,#290,.F.);
#507=ORIENTED_EDGE('',*,*,#506,.T.);
#508=ORIENTED_EDGE('',*,*,#358,.T.);
#509=ORIENTED_EDGE('',*,*,#493,.F.);
#510=EDGE_LOOP('',(#505,#507,#508,#509));
#511=FACE_OUTER_BOUND('',#510,.F.);
#512=ADVANCED_FACE('',(#511),#504,.T.);
#513=CARTESIAN_POINT('',(1.525E2,0.E0,-1.3E2));
#514=DIRECTION('',(0.E0,0.E0,-1.E0));
#515=DIRECTION('',(-1.E0,0.E0,0.E0));
#516=AXIS2_PLACEMENT_3D('',#513,#514,#515);
#517=PLANE('',#516);
#518=ORIENTED_EDGE('',*,*,#288,.F.);
#520=ORIENTED_EDGE('',*,*,#519,.T.);
#521=ORIENTED_EDGE('',*,*,#360,.T.);
#522=ORIENTED_EDGE('',*,*,#506,.F.);
#523=EDGE_LOOP('',(#518,#520,#521,#522));
#524=FACE_OUTER_BOUND('',#523,.F.);
#525=ADVANCED_FACE('',(#524),#517,.T.);
#526=CARTESIAN_POINT('',(1.79E2,0.E0,-1.2E2));
#527=DIRECTION('',(3.530572524342E-1,0.E0,-9.356017189507E-1));
#528=DIRECTION('',(-9.356017189507E-1,0.E0,-3.530572524342E-1));
#529=AXIS2_PLACEMENT_3D('',#526,#527,#528);
#530=PLANE('',#529);
#531=ORIENTED_EDGE('',*,*,#286,.F.);
#533=ORIENTED_EDGE('',*,*,#532,.T.);
#534=ORIENTED_EDGE('',*,*,#362,.T.);
#535=ORIENTED_EDGE('',*,*,#519,.F.);
#536=EDGE_LOOP('',(#531,#533,#534,#535));
#537=FACE_OUTER_BOUND('',#536,.F.);
#538=ADVANCED_FACE('',(#537),#530,.T.);
#539=CARTESIAN_POINT('',(1.79E2,0.E0,1.2E2));
#540=DIRECTION('',(1.E0,0.E0,0.E0));
#541=DIRECTION('',(0.E0,0.E0,-1.E0));
#542=AXIS2_PLACEMENT_3D('',#539,#540,#541);
#543=PLANE('',#542);
#544=ORIENTED_EDGE('',*,*,#284,.F.);
#546=ORIENTED_EDGE('',*,*,#545,.T.);
#547=ORIENTED_EDGE('',*,*,#364,.T.);
#548=ORIENTED_EDGE('',*,*,#532,.F.);
#549=EDGE_LOOP('',(#544,#546,#547,#548));
#550=FACE_OUTER_BOUND('',#549,.F.);
#551=ADVANCED_FACE('',(#550),#543,.T.);
#552=CARTESIAN_POINT('',(1.525E2,0.E0,1.3E2));
#553=DIRECTION('',(3.530572524342E-1,0.E0,9.356017189507E-1));
#554=DIRECTION('',(9.356017189507E-1,0.E0,-3.530572524342E-1));
#555=AXIS2_PLACEMENT_3D('',#552,#553,#554);
#556=PLANE('',#555);
#557=ORIENTED_EDGE('',*,*,#282,.F.);
#559=ORIENTED_EDGE('',*,*,#558,.T.);
#560=ORIENTED_EDGE('',*,*,#366,.T.);
#561=ORIENTED_EDGE('',*,*,#545,.F.);
#562=EDGE_LOOP('',(#557,#559,#560,#561));
#563=FACE_OUTER_BOUND('',#562,.F.);
#564=ADVANCED_FACE('',(#563),#556,.T.);
#565=CARTESIAN_POINT('',(-1.525E2,0.E0,1.3E2));
#566=DIRECTION('',(0.E0,0.E0,1.E0));
#567=DIRECTION('',(1.E0,0.E0,0.E0));
#568=AXIS2_PLACEMENT_3D('',#565,#566,#567);
#569=PLANE('',#568);
#570=ORIENTED_EDGE('',*,*,#280,.F.);
#571=ORIENTED_EDGE('',*,*,#482,.T.);
#572=ORIENTED_EDGE('',*,*,#368,.T.);
#573=ORIENTED_EDGE('',*,*,#558,.F.);
#574=EDGE_LOOP('',(#570,#571,#572,#573));
#575=FACE_OUTER_BOUND('',#574,.F.);
#576=ADVANCED_FACE('',(#575),#569,.T.);
#577=CLOSED_SHELL('',(#320,#335,#348,#394,#408,#420,#434,#446,#460,#472,#486,
#499,#512,#525,#538,#551,#564,#576));
#578=MANIFOLD_SOLID_BREP('',#577);
#580=DIMENSIONAL_EXPONENTS(0.E0,0.E0,0.E0,0.E0,0.E0,0.E0,0.E0);
#582=PLANE_ANGLE_MEASURE_WITH_UNIT(PLANE_ANGLE_MEASURE(1.745329251994E-2),#581);
#583=(CONVERSION_BASED_UNIT('DEGREE',#582)NAMED_UNIT(*)PLANE_ANGLE_UNIT());
#585=UNCERTAINTY_MEASURE_WITH_UNIT(LENGTH_MEASURE(4.866780151433E-2),#579,
'closure',
'Maximum model space distance between geometric entities at asserted connectivities');
#586=(GEOMETRIC_REPRESENTATION_CONTEXT(3)GLOBAL_UNCERTAINTY_ASSIGNED_CONTEXT((
#585))GLOBAL_UNIT_ASSIGNED_CONTEXT((#579,#583,#584))REPRESENTATION_CONTEXT
('ID1','3'));
#588=APPLICATION_CONTEXT(
'CONFIGURATION CONTROLLED 3D DESIGNS OF MECHANICAL PARTS AND ASSEMBLIES');
#589=APPLICATION_PROTOCOL_DEFINITION('international standard',
'config_control_design',1994,#588);
#590=DESIGN_CONTEXT('',#588,'design');
#591=MECHANICAL_CONTEXT('',#588,'mechanical');
#592=PRODUCT('NGRMP3040','NGRMP3040','NOT SPECIFIED',(#591));
#593=PRODUCT_DEFINITION_FORMATION_WITH_SPECIFIED_SOURCE('8','LAST_VERSION',#592,
.MADE.);
#597=PRODUCT_CATEGORY('part','');
#598=PRODUCT_RELATED_PRODUCT_CATEGORY('detail','',(#592));
#599=PRODUCT_CATEGORY_RELATIONSHIP('','',#597,#598);
#600=SECURITY_CLASSIFICATION_LEVEL('unclassified');
#601=SECURITY_CLASSIFICATION('','',#600);
#602=CC_DESIGN_SECURITY_CLASSIFICATION(#601,(#593));
#603=APPROVAL_STATUS('approved');
#604=APPROVAL(#603,'');
#605=CC_DESIGN_APPROVAL(#604,(#601,#593,#594));
#606=CALENDAR_DATE(116,1,12);
#607=COORDINATED_UNIVERSAL_TIME_OFFSET(2,0,.AHEAD.);
#608=LOCAL_TIME(13,52,7.E0,#607);
#609=DATE_AND_TIME(#606,#608);
#610=APPROVAL_DATE_TIME(#609,#604);
#611=DATE_TIME_ROLE('creation_date');
#612=CC_DESIGN_DATE_AND_TIME_ASSIGNMENT(#609,#611,(#594));
#613=DATE_TIME_ROLE('classification_date');
#614=CC_DESIGN_DATE_AND_TIME_ASSIGNMENT(#609,#613,(#601));
#615=PERSON('UNSPECIFIED','UNSPECIFIED',$,$,$,$);
#616=ORGANIZATION('UNSPECIFIED','UNSPECIFIED','UNSPECIFIED');
#617=PERSON_AND_ORGANIZATION(#615,#616);
#618=APPROVAL_ROLE('approver');
#619=APPROVAL_PERSON_ORGANIZATION(#617,#604,#618);
#620=PERSON_AND_ORGANIZATION_ROLE('creator');
#621=CC_DESIGN_PERSON_AND_ORGANIZATION_ASSIGNMENT(#617,#620,(#593,#594));
#622=PERSON_AND_ORGANIZATION_ROLE('design_supplier');
#623=CC_DESIGN_PERSON_AND_ORGANIZATION_ASSIGNMENT(#617,#622,(#593));
#624=PERSON_AND_ORGANIZATION_ROLE('classification_officer');
#625=CC_DESIGN_PERSON_AND_ORGANIZATION_ASSIGNMENT(#617,#624,(#601));
#626=PERSON_AND_ORGANIZATION_ROLE('design_owner');
#627=CC_DESIGN_PERSON_AND_ORGANIZATION_ASSIGNMENT(#617,#626,(#592));
#5=CIRCLE('',#4,3.5E0);
#10=CIRCLE('',#9,3.5E0);
#15=CIRCLE('',#14,3.5E0);
#20=CIRCLE('',#19,3.5E0);
#25=CIRCLE('',#24,3.5E0);
#30=CIRCLE('',#29,3.5E0);
#35=CIRCLE('',#34,3.5E0);
#40=CIRCLE('',#39,3.5E0);
#85=CIRCLE('',#84,3.5E0);
#90=CIRCLE('',#89,3.5E0);
#95=CIRCLE('',#94,3.5E0);
#100=CIRCLE('',#99,3.5E0);
#105=CIRCLE('',#104,3.5E0);
#110=CIRCLE('',#109,3.5E0);
#115=CIRCLE('',#114,3.5E0);
#120=CIRCLE('',#119,3.5E0);
#278=EDGE_CURVE('',#227,#228,#44,.T.);
#280=EDGE_CURVE('',#228,#230,#48,.T.);
#282=EDGE_CURVE('',#230,#232,#52,.T.);
#284=EDGE_CURVE('',#232,#234,#56,.T.);
#286=EDGE_CURVE('',#234,#236,#60,.T.);
#288=EDGE_CURVE('',#236,#238,#64,.T.);
#290=EDGE_CURVE('',#238,#240,#68,.T.);
#292=EDGE_CURVE('',#240,#227,#72,.T.);
#296=EDGE_CURVE('',#215,#216,#15,.T.);
#298=EDGE_CURVE('',#216,#215,#20,.T.);
#302=EDGE_CURVE('',#219,#220,#25,.T.);
#304=EDGE_CURVE('',#220,#219,#30,.T.);
#308=EDGE_CURVE('',#223,#224,#35,.T.);
#310=EDGE_CURVE('',#224,#223,#40,.T.);
#314=EDGE_CURVE('',#211,#212,#5,.T.);
#316=EDGE_CURVE('',#212,#211,#10,.T.);
#327=EDGE_CURVE('',#211,#243,#76,.T.);
#329=EDGE_CURVE('',#243,#244,#85,.T.);
#331=EDGE_CURVE('',#212,#244,#80,.T.);
#343=EDGE_CURVE('',#244,#243,#90,.T.);
#354=EDGE_CURVE('',#259,#260,#124,.T.);
#356=EDGE_CURVE('',#272,#259,#128,.T.);
#358=EDGE_CURVE('',#270,#272,#132,.T.);
#360=EDGE_CURVE('',#268,#270,#136,.T.);
#362=EDGE_CURVE('',#266,#268,#140,.T.);
#364=EDGE_CURVE('',#264,#266,#144,.T.);
#366=EDGE_CURVE('',#262,#264,#148,.T.);
#368=EDGE_CURVE('',#260,#262,#152,.T.);
#372=EDGE_CURVE('',#247,#248,#95,.T.);
#374=EDGE_CURVE('',#248,#247,#100,.T.);
#378=EDGE_CURVE('',#251,#252,#105,.T.);
#380=EDGE_CURVE('',#252,#251,#110,.T.);
#384=EDGE_CURVE('',#255,#256,#115,.T.);
#386=EDGE_CURVE('',#256,#255,#120,.T.);
#401=EDGE_CURVE('',#215,#247,#156,.T.);
#404=EDGE_CURVE('',#216,#248,#160,.T.);
#427=EDGE_CURVE('',#219,#251,#164,.T.);
#430=EDGE_CURVE('',#220,#252,#168,.T.);
#453=EDGE_CURVE('',#223,#255,#172,.T.);
#456=EDGE_CURVE('',#224,#256,#176,.T.);
#479=EDGE_CURVE('',#227,#259,#180,.T.);
#482=EDGE_CURVE('',#228,#260,#208,.T.);
#493=EDGE_CURVE('',#240,#272,#184,.T.);
#506=EDGE_CURVE('',#238,#270,#188,.T.);
#519=EDGE_CURVE('',#236,#268,#192,.T.);
#532=EDGE_CURVE('',#234,#266,#196,.T.);
#545=EDGE_CURVE('',#232,#264,#200,.T.);
#558=EDGE_CURVE('',#230,#262,#204,.T.);
#579=(LENGTH_UNIT()NAMED_UNIT(*)SI_UNIT(.MILLI.,.METRE.));
#581=(NAMED_UNIT(*)PLANE_ANGLE_UNIT()SI_UNIT($,.RADIAN.));
#584=(NAMED_UNIT(*)SI_UNIT($,.STERADIAN.)SOLID_ANGLE_UNIT());
#587=ADVANCED_BREP_SHAPE_REPRESENTATION('',(#578),#586);
#594=PRODUCT_DEFINITION('design','',#593,#590);
#595=PRODUCT_DEFINITION_SHAPE('','SHAPE FOR NGRMP3040.',#594);
#596=SHAPE_DEFINITION_REPRESENTATION(#595,#587);
ENDSEC;
END-ISO-10303-21;
