ISO-10303-21;
HEADER;
FILE_DESCRIPTION(('CATIA V5 STEP Exchange','CAx-IF Rec.Pracs.--- Model Styling and Organization---1.4--- 2014-01-23'),'2;1');

FILE_NAME('Z:\\&PI - IOS   Boites de sol\\BEP\\STEP pour Marketing\\088146.stp','2019-02-26T08:30:28+00:00',('none'),('none'),'CATIA Version 5-6 Release 2017 SP3','CATIA V5 STEP AP214','none');

FILE_SCHEMA(('AUTOMOTIVE_DESIGN { 1 0 10303 214 1 1 1 1 }'));

ENDSEC;
DATA;
#5=PRODUCT('A011588','','Finishing plate assembly &RB',(#2)) ;
#26=PRODUCT('D008068','','',(#2)) ;
#207=PRODUCT('D008071','','Finishing plate T3  &RB',(#2)) ;
#388=PRODUCT('D000054_A','','adh\X2\00E9\X0\sif double face',(#2)) ;
#2=PRODUCT_CONTEXT(' ',#1,'mechanical') ;
#1=APPLICATION_CONTEXT('automotive design') ;
#13=PRODUCT_DEFINITION('',' ',#6,#3) ;
#28=PRODUCT_DEFINITION('',' ',#27,#3) ;
#209=PRODUCT_DEFINITION('',' ',#208,#3) ;
#390=PRODUCT_DEFINITION('',' ',#389,#3) ;
#3=PRODUCT_DEFINITION_CONTEXT('part definition',#1,' ') ;
#16=PRODUCT_DEFINITION_SHAPE(' ',' ',#13) ;
#29=PRODUCT_DEFINITION_SHAPE(' ',' ',#28) ;
#191=PRODUCT_DEFINITION_SHAPE(' ',' ',#190) ;
#210=PRODUCT_DEFINITION_SHAPE(' ',' ',#209) ;
#372=PRODUCT_DEFINITION_SHAPE(' ',' ',#371) ;
#391=PRODUCT_DEFINITION_SHAPE(' ',' ',#390) ;
#553=PRODUCT_DEFINITION_SHAPE(' ',' ',#552) ;
#566=PRODUCT_DEFINITION_SHAPE(' ',' ',#565) ;
#579=PRODUCT_DEFINITION_SHAPE(' ',' ',#578) ;
#592=PRODUCT_DEFINITION_SHAPE(' ',' ',#591) ;
#604=MECHANICAL_DESIGN_GEOMETRIC_PRESENTATION_REPRESENTATION(' ',(#38,#219,#400),#21) ;
#15=SHAPE_REPRESENTATION(' ',(#195,#376,#557,#570,#583,#596),#21) ;
#24=SHAPE_REPRESENTATION(' ',(#196),#23) ;
#205=SHAPE_REPRESENTATION(' ',(#377),#204) ;
#386=SHAPE_REPRESENTATION(' ',(#558,#571,#584,#597),#385) ;
#194=ITEM_DEFINED_TRANSFORMATION(' ',' ',#196,#195) ;
#375=ITEM_DEFINED_TRANSFORMATION(' ',' ',#377,#376) ;
#556=ITEM_DEFINED_TRANSFORMATION(' ',' ',#558,#557) ;
#569=ITEM_DEFINED_TRANSFORMATION(' ',' ',#571,#570) ;
#582=ITEM_DEFINED_TRANSFORMATION(' ',' ',#584,#583) ;
#595=ITEM_DEFINED_TRANSFORMATION(' ',' ',#597,#596) ;
#43=AXIS2_PLACEMENT_3D('Plane Axis2P3D',#40,#41,#42) ;
#83=AXIS2_PLACEMENT_3D('Plane Axis2P3D',#80,#81,#82) ;
#114=AXIS2_PLACEMENT_3D('Plane Axis2P3D',#111,#112,#113) ;
#145=AXIS2_PLACEMENT_3D('Plane Axis2P3D',#142,#143,#144) ;
#167=AXIS2_PLACEMENT_3D('Plane Axis2P3D',#164,#165,#166) ;
#179=AXIS2_PLACEMENT_3D('Plane Axis2P3D',#176,#177,#178) ;
#195=AXIS2_PLACEMENT_3D(' ',#198,#202,#201) ;
#196=AXIS2_PLACEMENT_3D(' ',#197,#200,#199) ;
#224=AXIS2_PLACEMENT_3D('Plane Axis2P3D',#221,#222,#223) ;
#264=AXIS2_PLACEMENT_3D('Plane Axis2P3D',#261,#262,#263) ;
#295=AXIS2_PLACEMENT_3D('Plane Axis2P3D',#292,#293,#294) ;
#326=AXIS2_PLACEMENT_3D('Plane Axis2P3D',#323,#324,#325) ;
#348=AXIS2_PLACEMENT_3D('Plane Axis2P3D',#345,#346,#347) ;
#360=AXIS2_PLACEMENT_3D('Plane Axis2P3D',#357,#358,#359) ;
#376=AXIS2_PLACEMENT_3D(' ',#379,#383,#382) ;
#377=AXIS2_PLACEMENT_3D(' ',#378,#381,#380) ;
#405=AXIS2_PLACEMENT_3D('Plane Axis2P3D',#402,#403,#404) ;
#445=AXIS2_PLACEMENT_3D('Plane Axis2P3D',#442,#443,#444) ;
#476=AXIS2_PLACEMENT_3D('Plane Axis2P3D',#473,#474,#475) ;
#507=AXIS2_PLACEMENT_3D('Plane Axis2P3D',#504,#505,#506) ;
#529=AXIS2_PLACEMENT_3D('Plane Axis2P3D',#526,#527,#528) ;
#541=AXIS2_PLACEMENT_3D('Plane Axis2P3D',#538,#539,#540) ;
#557=AXIS2_PLACEMENT_3D(' ',#560,#564,#563) ;
#558=AXIS2_PLACEMENT_3D(' ',#559,#562,#561) ;
#570=AXIS2_PLACEMENT_3D(' ',#573,#577,#576) ;
#571=AXIS2_PLACEMENT_3D(' ',#572,#575,#574) ;
#583=AXIS2_PLACEMENT_3D(' ',#586,#590,#589) ;
#584=AXIS2_PLACEMENT_3D(' ',#585,#588,#587) ;
#596=AXIS2_PLACEMENT_3D(' ',#599,#603,#602) ;
#597=AXIS2_PLACEMENT_3D(' ',#598,#601,#600) ;
#40=CARTESIAN_POINT('Axis2P3D Location',(-128.25,103.7,0.)) ;
#45=CARTESIAN_POINT('Line Origine',(-128.25,103.7,6.)) ;
#49=CARTESIAN_POINT('Vertex',(-128.25,103.7,0.)) ;
#51=CARTESIAN_POINT('Vertex',(-128.25,103.7,12.)) ;
#54=CARTESIAN_POINT('Line Origine',(-128.25,0.,0.)) ;
#58=CARTESIAN_POINT('Vertex',(-128.25,-103.7,0.)) ;
#61=CARTESIAN_POINT('Line Origine',(-128.25,-103.7,6.)) ;
#65=CARTESIAN_POINT('Vertex',(-128.25,-103.7,12.)) ;
#68=CARTESIAN_POINT('Line Origine',(-128.25,0.,12.)) ;
#80=CARTESIAN_POINT('Axis2P3D Location',(128.25,-103.7,0.)) ;
#85=CARTESIAN_POINT('Line Origine',(0.,-103.7,0.)) ;
#89=CARTESIAN_POINT('Vertex',(128.25,-103.7,0.)) ;
#92=CARTESIAN_POINT('Line Origine',(128.25,-103.7,6.)) ;
#96=CARTESIAN_POINT('Vertex',(128.25,-103.7,12.)) ;
#99=CARTESIAN_POINT('Line Origine',(0.,-103.7,12.)) ;
#111=CARTESIAN_POINT('Axis2P3D Location',(128.25,-103.7,0.)) ;
#116=CARTESIAN_POINT('Line Origine',(128.25,0.,0.)) ;
#120=CARTESIAN_POINT('Vertex',(128.25,103.7,0.)) ;
#123=CARTESIAN_POINT('Line Origine',(128.25,103.7,6.)) ;
#127=CARTESIAN_POINT('Vertex',(128.25,103.7,12.)) ;
#130=CARTESIAN_POINT('Line Origine',(128.25,0.,12.)) ;
#142=CARTESIAN_POINT('Axis2P3D Location',(-128.25,103.7,0.)) ;
#147=CARTESIAN_POINT('Line Origine',(0.,103.7,0.)) ;
#152=CARTESIAN_POINT('Line Origine',(0.,103.7,12.)) ;
#164=CARTESIAN_POINT('Axis2P3D Location',(0.,0.,0.)) ;
#176=CARTESIAN_POINT('Axis2P3D Location',(0.,0.,12.)) ;
#197=CARTESIAN_POINT('NONE',(0.,0.,0.)) ;
#198=CARTESIAN_POINT('NONE',(0.,0.,-38.735468372)) ;
#221=CARTESIAN_POINT('Axis2P3D Location',(-128.75,104.2,0.)) ;
#226=CARTESIAN_POINT('Line Origine',(-128.75,104.2,0.5)) ;
#230=CARTESIAN_POINT('Vertex',(-128.75,104.2,0.)) ;
#232=CARTESIAN_POINT('Vertex',(-128.75,104.2,1.)) ;
#235=CARTESIAN_POINT('Line Origine',(-128.75,0.,0.)) ;
#239=CARTESIAN_POINT('Vertex',(-128.75,-104.2,0.)) ;
#242=CARTESIAN_POINT('Line Origine',(-128.75,-104.2,0.5)) ;
#246=CARTESIAN_POINT('Vertex',(-128.75,-104.2,1.)) ;
#249=CARTESIAN_POINT('Line Origine',(-128.75,0.,1.)) ;
#261=CARTESIAN_POINT('Axis2P3D Location',(128.75,-104.2,0.)) ;
#266=CARTESIAN_POINT('Line Origine',(0.,-104.2,0.)) ;
#270=CARTESIAN_POINT('Vertex',(128.75,-104.2,0.)) ;
#273=CARTESIAN_POINT('Line Origine',(128.75,-104.2,0.5)) ;
#277=CARTESIAN_POINT('Vertex',(128.75,-104.2,1.)) ;
#280=CARTESIAN_POINT('Line Origine',(0.,-104.2,1.)) ;
#292=CARTESIAN_POINT('Axis2P3D Location',(128.75,-104.2,0.)) ;
#297=CARTESIAN_POINT('Line Origine',(128.75,0.,0.)) ;
#301=CARTESIAN_POINT('Vertex',(128.75,104.2,0.)) ;
#304=CARTESIAN_POINT('Line Origine',(128.75,104.2,0.5)) ;
#308=CARTESIAN_POINT('Vertex',(128.75,104.2,1.)) ;
#311=CARTESIAN_POINT('Line Origine',(128.75,0.,1.)) ;
#323=CARTESIAN_POINT('Axis2P3D Location',(-128.75,104.2,0.)) ;
#328=CARTESIAN_POINT('Line Origine',(0.,104.2,0.)) ;
#333=CARTESIAN_POINT('Line Origine',(0.,104.2,1.)) ;
#345=CARTESIAN_POINT('Axis2P3D Location',(0.,0.,0.)) ;
#357=CARTESIAN_POINT('Axis2P3D Location',(0.,0.,1.)) ;
#378=CARTESIAN_POINT('NONE',(0.,0.,0.)) ;
#379=CARTESIAN_POINT('NONE',(0.,0.,-25.525468372)) ;
#402=CARTESIAN_POINT('Axis2P3D Location',(200.000918768,-19.9977947568,8.881784197E-016)) ;
#407=CARTESIAN_POINT('Line Origine',(200.000918768,2.50220524316,8.881784197E-016)) ;
#411=CARTESIAN_POINT('Vertex',(200.000918768,-9.99779475684,8.881784197E-016)) ;
#413=CARTESIAN_POINT('Vertex',(200.000918768,15.0022052432,8.881784197E-016)) ;
#416=CARTESIAN_POINT('Line Origine',(100.000918768,-9.99779475685,8.881784197E-016)) ;
#420=CARTESIAN_POINT('Vertex',(0.000918767585911,-9.99779475685,8.881784197E-016)) ;
#423=CARTESIAN_POINT('Line Origine',(0.000918767585879,2.50220524315,8.881784197E-016)) ;
#427=CARTESIAN_POINT('Vertex',(0.000918767585871,15.0022052432,8.881784197E-016)) ;
#430=CARTESIAN_POINT('Line Origine',(100.000918768,15.0022052432,8.881784197E-016)) ;
#442=CARTESIAN_POINT('Axis2P3D Location',(0.000918767585928,-19.9977947568,8.881784197E-016)) ;
#447=CARTESIAN_POINT('Line Origine',(0.000918767585911,-9.99779475685,0.075)) ;
#451=CARTESIAN_POINT('Vertex',(0.000918767586048,-9.99779475685,0.15)) ;
#454=CARTESIAN_POINT('Line Origine',(0.000918767585891,2.50220524315,0.15)) ;
#458=CARTESIAN_POINT('Vertex',(0.000918767586008,15.0022052432,0.15)) ;
#461=CARTESIAN_POINT('Line Origine',(0.000918767585871,15.0022052432,0.075)) ;
#473=CARTESIAN_POINT('Axis2P3D Location',(200.000918768,-19.9977947568,0.15)) ;
#478=CARTESIAN_POINT('Line Origine',(100.000918768,15.0022052432,0.15)) ;
#482=CARTESIAN_POINT('Vertex',(200.000918768,15.0022052432,0.15)) ;
#485=CARTESIAN_POINT('Line Origine',(100.000918768,-9.99779475685,0.15)) ;
#489=CARTESIAN_POINT('Vertex',(200.000918768,-9.99779475684,0.15)) ;
#492=CARTESIAN_POINT('Line Origine',(200.000918768,2.50220524316,0.15)) ;
#504=CARTESIAN_POINT('Axis2P3D Location',(200.000918768,-19.9977947568,0.15)) ;
#509=CARTESIAN_POINT('Line Origine',(200.000918768,-9.99779475684,0.075)) ;
#514=CARTESIAN_POINT('Line Origine',(200.000918768,15.0022052432,0.075)) ;
#526=CARTESIAN_POINT('Axis2P3D Location',(1.21933713126E-014,-9.99779475685,0.)) ;
#538=CARTESIAN_POINT('Axis2P3D Location',(-2.83774739818E-014,15.0022052432,0.)) ;
#559=CARTESIAN_POINT('NONE',(0.,0.,0.)) ;
#560=CARTESIAN_POINT('NONE',(-100.5,81.4,-38.945468372)) ;
#572=CARTESIAN_POINT('NONE',(0.,0.,0.)) ;
#573=CARTESIAN_POINT('NONE',(-100.5,-81.4,-38.945468372)) ;
#585=CARTESIAN_POINT('NONE',(0.,0.,0.)) ;
#586=CARTESIAN_POINT('NONE',(-99.5,-81.4,-25.735468372)) ;
#598=CARTESIAN_POINT('NONE',(0.,0.,0.)) ;
#599=CARTESIAN_POINT('NONE',(100.5,81.4,-25.735468372)) ;
#41=DIRECTION('Axis2P3D Direction',(-1.,0.,0.)) ;
#42=DIRECTION('Axis2P3D XDirection',(0.,-1.,0.)) ;
#46=DIRECTION('Vector Direction',(0.,0.,1.)) ;
#55=DIRECTION('Vector Direction',(0.,-1.,0.)) ;
#62=DIRECTION('Vector Direction',(0.,0.,1.)) ;
#69=DIRECTION('Vector Direction',(0.,-1.,0.)) ;
#81=DIRECTION('Axis2P3D Direction',(0.,1.,-0.)) ;
#82=DIRECTION('Axis2P3D XDirection',(-1.,0.,0.)) ;
#86=DIRECTION('Vector Direction',(-1.,0.,0.)) ;
#93=DIRECTION('Vector Direction',(0.,0.,1.)) ;
#100=DIRECTION('Vector Direction',(-1.,0.,0.)) ;
#112=DIRECTION('Axis2P3D Direction',(1.,0.,0.)) ;
#113=DIRECTION('Axis2P3D XDirection',(0.,1.,0.)) ;
#117=DIRECTION('Vector Direction',(0.,1.,0.)) ;
#124=DIRECTION('Vector Direction',(0.,0.,1.)) ;
#131=DIRECTION('Vector Direction',(0.,1.,0.)) ;
#143=DIRECTION('Axis2P3D Direction',(0.,-1.,0.)) ;
#144=DIRECTION('Axis2P3D XDirection',(1.,0.,0.)) ;
#148=DIRECTION('Vector Direction',(1.,0.,0.)) ;
#153=DIRECTION('Vector Direction',(1.,0.,0.)) ;
#165=DIRECTION('Axis2P3D Direction',(0.,0.,1.)) ;
#166=DIRECTION('Axis2P3D XDirection',(1.,0.,0.)) ;
#177=DIRECTION('Axis2P3D Direction',(0.,0.,1.)) ;
#178=DIRECTION('Axis2P3D XDirection',(1.,0.,0.)) ;
#199=DIRECTION('NONE',(1.,0.,0.)) ;
#200=DIRECTION('NONE',(0.,0.,1.)) ;
#201=DIRECTION('NONE',(1.,0.,0.)) ;
#202=DIRECTION('NONE',(0.,0.,1.)) ;
#222=DIRECTION('Axis2P3D Direction',(-1.,0.,0.)) ;
#223=DIRECTION('Axis2P3D XDirection',(0.,-1.,0.)) ;
#227=DIRECTION('Vector Direction',(0.,0.,1.)) ;
#236=DIRECTION('Vector Direction',(0.,-1.,0.)) ;
#243=DIRECTION('Vector Direction',(0.,0.,1.)) ;
#250=DIRECTION('Vector Direction',(0.,-1.,0.)) ;
#262=DIRECTION('Axis2P3D Direction',(0.,1.,-0.)) ;
#263=DIRECTION('Axis2P3D XDirection',(-1.,0.,0.)) ;
#267=DIRECTION('Vector Direction',(-1.,0.,0.)) ;
#274=DIRECTION('Vector Direction',(0.,0.,1.)) ;
#281=DIRECTION('Vector Direction',(-1.,0.,0.)) ;
#293=DIRECTION('Axis2P3D Direction',(1.,0.,0.)) ;
#294=DIRECTION('Axis2P3D XDirection',(0.,1.,0.)) ;
#298=DIRECTION('Vector Direction',(0.,1.,0.)) ;
#305=DIRECTION('Vector Direction',(0.,0.,1.)) ;
#312=DIRECTION('Vector Direction',(0.,1.,0.)) ;
#324=DIRECTION('Axis2P3D Direction',(0.,-1.,0.)) ;
#325=DIRECTION('Axis2P3D XDirection',(1.,0.,0.)) ;
#329=DIRECTION('Vector Direction',(1.,0.,0.)) ;
#334=DIRECTION('Vector Direction',(1.,0.,0.)) ;
#346=DIRECTION('Axis2P3D Direction',(0.,0.,1.)) ;
#347=DIRECTION('Axis2P3D XDirection',(1.,0.,0.)) ;
#358=DIRECTION('Axis2P3D Direction',(0.,0.,1.)) ;
#359=DIRECTION('Axis2P3D XDirection',(1.,0.,0.)) ;
#380=DIRECTION('NONE',(1.,0.,0.)) ;
#381=DIRECTION('NONE',(0.,0.,1.)) ;
#382=DIRECTION('NONE',(1.,0.,0.)) ;
#383=DIRECTION('NONE',(0.,0.,1.)) ;
#403=DIRECTION('Axis2P3D Direction',(-0.,0.,-1.)) ;
#404=DIRECTION('Axis2P3D XDirection',(-1.,-1.62283381178E-015,0.)) ;
#408=DIRECTION('Vector Direction',(-1.13686837722E-015,1.,0.)) ;
#417=DIRECTION('Vector Direction',(-1.,-1.61648472385E-015,0.)) ;
#424=DIRECTION('Vector Direction',(-1.62283381178E-015,1.,0.)) ;
#431=DIRECTION('Vector Direction',(-1.,-1.61648472385E-015,0.)) ;
#443=DIRECTION('Axis2P3D Direction',(-1.,-1.62283381178E-015,0.)) ;
#444=DIRECTION('Axis2P3D XDirection',(0.,0.,1.)) ;
#448=DIRECTION('Vector Direction',(0.,0.,1.)) ;
#455=DIRECTION('Vector Direction',(-1.62283381178E-015,1.,0.)) ;
#462=DIRECTION('Vector Direction',(0.,0.,1.)) ;
#474=DIRECTION('Axis2P3D Direction',(-0.,0.,-1.)) ;
#475=DIRECTION('Axis2P3D XDirection',(-1.,-1.62283381178E-015,0.)) ;
#479=DIRECTION('Vector Direction',(-1.,-1.61648472385E-015,0.)) ;
#486=DIRECTION('Vector Direction',(-1.,-1.61648472385E-015,0.)) ;
#493=DIRECTION('Vector Direction',(-1.13686837722E-015,1.,0.)) ;
#505=DIRECTION('Axis2P3D Direction',(1.,1.62283381178E-015,0.)) ;
#506=DIRECTION('Axis2P3D XDirection',(0.,0.,-1.)) ;
#510=DIRECTION('Vector Direction',(0.,0.,-1.)) ;
#515=DIRECTION('Vector Direction',(0.,0.,-1.)) ;
#527=DIRECTION('Axis2P3D Direction',(-1.62283381178E-015,1.,0.)) ;
#528=DIRECTION('Axis2P3D XDirection',(-1.,-1.62283381178E-015,0.)) ;
#539=DIRECTION('Axis2P3D Direction',(-1.62283381178E-015,1.,0.)) ;
#540=DIRECTION('Axis2P3D XDirection',(-1.,-1.62283381178E-015,0.)) ;
#561=DIRECTION('NONE',(1.,0.,0.)) ;
#562=DIRECTION('NONE',(0.,0.,1.)) ;
#563=DIRECTION('NONE',(1.,1.50573997715E-015,0.)) ;
#564=DIRECTION('NONE',(0.,0.,1.)) ;
#574=DIRECTION('NONE',(1.,0.,0.)) ;
#575=DIRECTION('NONE',(0.,0.,1.)) ;
#576=DIRECTION('NONE',(1.,-2.77555756156E-016,0.)) ;
#577=DIRECTION('NONE',(0.,0.,1.)) ;
#587=DIRECTION('NONE',(1.,0.,0.)) ;
#588=DIRECTION('NONE',(0.,0.,1.)) ;
#589=DIRECTION('NONE',(1.,2.49800180541E-016,0.)) ;
#590=DIRECTION('NONE',(0.,0.,1.)) ;
#600=DIRECTION('NONE',(1.,0.,0.)) ;
#601=DIRECTION('NONE',(0.,0.,1.)) ;
#602=DIRECTION('NONE',(-1.,-8.60422844084E-016,0.)) ;
#603=DIRECTION('NONE',(0.,0.,1.)) ;
#8=PRODUCT_RELATED_PRODUCT_CATEGORY('part',$,(#26,#207,#388)) ;
#11=PRODUCT_RELATED_PRODUCT_CATEGORY('part',$,(#5)) ;
#7=PRODUCT_CATEGORY('part','specification') ;
#10=PRODUCT_CATEGORY('part','specification') ;
#38=STYLED_ITEM(' ',(#37),#30) ;
#219=STYLED_ITEM(' ',(#218),#211) ;
#400=STYLED_ITEM(' ',(#399),#392) ;
#37=PRESENTATION_STYLE_ASSIGNMENT((#36)) ;
#218=PRESENTATION_STYLE_ASSIGNMENT((#217)) ;
#399=PRESENTATION_STYLE_ASSIGNMENT((#398)) ;
#36=SURFACE_STYLE_USAGE(.BOTH.,#35) ;
#217=SURFACE_STYLE_USAGE(.BOTH.,#216) ;
#398=SURFACE_STYLE_USAGE(.BOTH.,#397) ;
#35=SURFACE_SIDE_STYLE(' ',(#34)) ;
#216=SURFACE_SIDE_STYLE(' ',(#215)) ;
#397=SURFACE_SIDE_STYLE(' ',(#396)) ;
#34=SURFACE_STYLE_FILL_AREA(#33) ;
#215=SURFACE_STYLE_FILL_AREA(#214) ;
#396=SURFACE_STYLE_FILL_AREA(#395) ;
#33=FILL_AREA_STYLE(' ',(#32)) ;
#214=FILL_AREA_STYLE(' ',(#213)) ;
#395=FILL_AREA_STYLE(' ',(#394)) ;
#32=FILL_AREA_STYLE_COLOUR(' ',#31) ;
#213=FILL_AREA_STYLE_COLOUR(' ',#212) ;
#394=FILL_AREA_STYLE_COLOUR(' ',#393) ;
#47=VECTOR('Line Direction',#46,1.) ;
#56=VECTOR('Line Direction',#55,1.) ;
#63=VECTOR('Line Direction',#62,1.) ;
#70=VECTOR('Line Direction',#69,1.) ;
#87=VECTOR('Line Direction',#86,1.) ;
#94=VECTOR('Line Direction',#93,1.) ;
#101=VECTOR('Line Direction',#100,1.) ;
#118=VECTOR('Line Direction',#117,1.) ;
#125=VECTOR('Line Direction',#124,1.) ;
#132=VECTOR('Line Direction',#131,1.) ;
#149=VECTOR('Line Direction',#148,1.) ;
#154=VECTOR('Line Direction',#153,1.) ;
#228=VECTOR('Line Direction',#227,1.) ;
#237=VECTOR('Line Direction',#236,1.) ;
#244=VECTOR('Line Direction',#243,1.) ;
#251=VECTOR('Line Direction',#250,1.) ;
#268=VECTOR('Line Direction',#267,1.) ;
#275=VECTOR('Line Direction',#274,1.) ;
#282=VECTOR('Line Direction',#281,1.) ;
#299=VECTOR('Line Direction',#298,1.) ;
#306=VECTOR('Line Direction',#305,1.) ;
#313=VECTOR('Line Direction',#312,1.) ;
#330=VECTOR('Line Direction',#329,1.) ;
#335=VECTOR('Line Direction',#334,1.) ;
#409=VECTOR('Line Direction',#408,1.) ;
#418=VECTOR('Line Direction',#417,1.) ;
#425=VECTOR('Line Direction',#424,1.) ;
#432=VECTOR('Line Direction',#431,1.) ;
#449=VECTOR('Line Direction',#448,1.) ;
#456=VECTOR('Line Direction',#455,1.) ;
#463=VECTOR('Line Direction',#462,1.) ;
#480=VECTOR('Line Direction',#479,1.) ;
#487=VECTOR('Line Direction',#486,1.) ;
#494=VECTOR('Line Direction',#493,1.) ;
#511=VECTOR('Line Direction',#510,1.) ;
#516=VECTOR('Line Direction',#515,1.) ;
#20=UNCERTAINTY_MEASURE_WITH_UNIT(LENGTH_MEASURE(0.005),#17,'distance_accuracy_value','CONFUSED CURVE UNCERTAINTY') ;
#22=UNCERTAINTY_MEASURE_WITH_UNIT(LENGTH_MEASURE(0.005),#17,'distance_accuracy_value','CONFUSED CURVE UNCERTAINTY') ;
#203=UNCERTAINTY_MEASURE_WITH_UNIT(LENGTH_MEASURE(0.005),#17,'distance_accuracy_value','CONFUSED CURVE UNCERTAINTY') ;
#384=UNCERTAINTY_MEASURE_WITH_UNIT(LENGTH_MEASURE(0.005),#17,'distance_accuracy_value','CONFUSED CURVE UNCERTAINTY') ;
#192=CONTEXT_DEPENDENT_SHAPE_REPRESENTATION(#193,#191) ;
#373=CONTEXT_DEPENDENT_SHAPE_REPRESENTATION(#374,#372) ;
#554=CONTEXT_DEPENDENT_SHAPE_REPRESENTATION(#555,#553) ;
#567=CONTEXT_DEPENDENT_SHAPE_REPRESENTATION(#568,#566) ;
#580=CONTEXT_DEPENDENT_SHAPE_REPRESENTATION(#581,#579) ;
#593=CONTEXT_DEPENDENT_SHAPE_REPRESENTATION(#594,#592) ;
#189=SHAPE_REPRESENTATION_RELATIONSHIP(' ',' ',#24,#188) ;
#370=SHAPE_REPRESENTATION_RELATIONSHIP(' ',' ',#205,#369) ;
#551=SHAPE_REPRESENTATION_RELATIONSHIP(' ',' ',#386,#550) ;
#74=ORIENTED_EDGE('',*,*,#53,.F.) ;
#75=ORIENTED_EDGE('',*,*,#60,.T.) ;
#76=ORIENTED_EDGE('',*,*,#67,.T.) ;
#77=ORIENTED_EDGE('',*,*,#72,.F.) ;
#105=ORIENTED_EDGE('',*,*,#67,.F.) ;
#106=ORIENTED_EDGE('',*,*,#91,.T.) ;
#107=ORIENTED_EDGE('',*,*,#98,.T.) ;
#108=ORIENTED_EDGE('',*,*,#103,.F.) ;
#136=ORIENTED_EDGE('',*,*,#98,.F.) ;
#137=ORIENTED_EDGE('',*,*,#122,.T.) ;
#138=ORIENTED_EDGE('',*,*,#129,.T.) ;
#139=ORIENTED_EDGE('',*,*,#134,.F.) ;
#158=ORIENTED_EDGE('',*,*,#129,.F.) ;
#159=ORIENTED_EDGE('',*,*,#151,.T.) ;
#160=ORIENTED_EDGE('',*,*,#53,.T.) ;
#161=ORIENTED_EDGE('',*,*,#156,.F.) ;
#170=ORIENTED_EDGE('',*,*,#151,.F.) ;
#171=ORIENTED_EDGE('',*,*,#122,.F.) ;
#172=ORIENTED_EDGE('',*,*,#91,.F.) ;
#173=ORIENTED_EDGE('',*,*,#60,.F.) ;
#182=ORIENTED_EDGE('',*,*,#72,.T.) ;
#183=ORIENTED_EDGE('',*,*,#103,.T.) ;
#184=ORIENTED_EDGE('',*,*,#134,.T.) ;
#185=ORIENTED_EDGE('',*,*,#156,.T.) ;
#255=ORIENTED_EDGE('',*,*,#234,.F.) ;
#256=ORIENTED_EDGE('',*,*,#241,.T.) ;
#257=ORIENTED_EDGE('',*,*,#248,.T.) ;
#258=ORIENTED_EDGE('',*,*,#253,.F.) ;
#286=ORIENTED_EDGE('',*,*,#248,.F.) ;
#287=ORIENTED_EDGE('',*,*,#272,.T.) ;
#288=ORIENTED_EDGE('',*,*,#279,.T.) ;
#289=ORIENTED_EDGE('',*,*,#284,.F.) ;
#317=ORIENTED_EDGE('',*,*,#279,.F.) ;
#318=ORIENTED_EDGE('',*,*,#303,.T.) ;
#319=ORIENTED_EDGE('',*,*,#310,.T.) ;
#320=ORIENTED_EDGE('',*,*,#315,.F.) ;
#339=ORIENTED_EDGE('',*,*,#310,.F.) ;
#340=ORIENTED_EDGE('',*,*,#332,.T.) ;
#341=ORIENTED_EDGE('',*,*,#234,.T.) ;
#342=ORIENTED_EDGE('',*,*,#337,.F.) ;
#351=ORIENTED_EDGE('',*,*,#332,.F.) ;
#352=ORIENTED_EDGE('',*,*,#303,.F.) ;
#353=ORIENTED_EDGE('',*,*,#272,.F.) ;
#354=ORIENTED_EDGE('',*,*,#241,.F.) ;
#363=ORIENTED_EDGE('',*,*,#253,.T.) ;
#364=ORIENTED_EDGE('',*,*,#284,.T.) ;
#365=ORIENTED_EDGE('',*,*,#315,.T.) ;
#366=ORIENTED_EDGE('',*,*,#337,.T.) ;
#436=ORIENTED_EDGE('',*,*,#415,.F.) ;
#437=ORIENTED_EDGE('',*,*,#422,.T.) ;
#438=ORIENTED_EDGE('',*,*,#429,.T.) ;
#439=ORIENTED_EDGE('',*,*,#434,.F.) ;
#467=ORIENTED_EDGE('',*,*,#429,.F.) ;
#468=ORIENTED_EDGE('',*,*,#453,.T.) ;
#469=ORIENTED_EDGE('',*,*,#460,.T.) ;
#470=ORIENTED_EDGE('',*,*,#465,.F.) ;
#498=ORIENTED_EDGE('',*,*,#484,.T.) ;
#499=ORIENTED_EDGE('',*,*,#460,.F.) ;
#500=ORIENTED_EDGE('',*,*,#491,.F.) ;
#501=ORIENTED_EDGE('',*,*,#496,.T.) ;
#520=ORIENTED_EDGE('',*,*,#496,.F.) ;
#521=ORIENTED_EDGE('',*,*,#513,.T.) ;
#522=ORIENTED_EDGE('',*,*,#415,.T.) ;
#523=ORIENTED_EDGE('',*,*,#518,.F.) ;
#532=ORIENTED_EDGE('',*,*,#513,.F.) ;
#533=ORIENTED_EDGE('',*,*,#491,.T.) ;
#534=ORIENTED_EDGE('',*,*,#453,.F.) ;
#535=ORIENTED_EDGE('',*,*,#422,.F.) ;
#544=ORIENTED_EDGE('',*,*,#434,.T.) ;
#545=ORIENTED_EDGE('',*,*,#465,.T.) ;
#546=ORIENTED_EDGE('',*,*,#484,.F.) ;
#547=ORIENTED_EDGE('',*,*,#518,.T.) ;
#39=CLOSED_SHELL('Closed Shell',(#79,#110,#141,#163,#175,#187)) ;
#220=CLOSED_SHELL('Closed Shell',(#260,#291,#322,#344,#356,#368)) ;
#401=CLOSED_SHELL('Closed Shell',(#441,#472,#503,#525,#537,#549)) ;
#188=ADVANCED_BREP_SHAPE_REPRESENTATION('NONE',(#30),#23) ;
#369=ADVANCED_BREP_SHAPE_REPRESENTATION('NONE',(#211),#204) ;
#550=ADVANCED_BREP_SHAPE_REPRESENTATION('NONE',(#392),#385) ;
#79=ADVANCED_FACE('Corps principal',(#78),#44,.T.) ;
#110=ADVANCED_FACE('Corps principal',(#109),#84,.F.) ;
#141=ADVANCED_FACE('Corps principal',(#140),#115,.T.) ;
#163=ADVANCED_FACE('Corps principal',(#162),#146,.F.) ;
#175=ADVANCED_FACE('Corps principal',(#174),#168,.F.) ;
#187=ADVANCED_FACE('Corps principal',(#186),#180,.T.) ;
#260=ADVANCED_FACE('Corps principal',(#259),#225,.T.) ;
#291=ADVANCED_FACE('Corps principal',(#290),#265,.F.) ;
#322=ADVANCED_FACE('Corps principal',(#321),#296,.T.) ;
#344=ADVANCED_FACE('Corps principal',(#343),#327,.F.) ;
#356=ADVANCED_FACE('Corps principal',(#355),#349,.F.) ;
#368=ADVANCED_FACE('Corps principal',(#367),#361,.T.) ;
#441=ADVANCED_FACE('Corps de pi\X2\00E8\X0\ce.2',(#440),#406,.T.) ;
#472=ADVANCED_FACE('Corps de pi\X2\00E8\X0\ce.2',(#471),#446,.T.) ;
#503=ADVANCED_FACE('Corps de pi\X2\00E8\X0\ce.2',(#502),#477,.F.) ;
#525=ADVANCED_FACE('Corps de pi\X2\00E8\X0\ce.2',(#524),#508,.T.) ;
#537=ADVANCED_FACE('Corps de pi\X2\00E8\X0\ce.2',(#536),#530,.F.) ;
#549=ADVANCED_FACE('Corps de pi\X2\00E8\X0\ce.2',(#548),#542,.T.) ;
#4=APPLICATION_PROTOCOL_DEFINITION('international standard','automotive_design',2001,#1) ;
#30=MANIFOLD_SOLID_BREP('Corps principal',#39) ;
#211=MANIFOLD_SOLID_BREP('Corps principal',#220) ;
#392=MANIFOLD_SOLID_BREP('Corps de pi\X2\00E8\X0\ce.2',#401) ;
#212=COLOUR_RGB('Colour',0.474509803922,0.454901960784,0.592156862745) ;
#393=COLOUR_RGB('Colour',0.823529411765,0.823529411765,1.) ;
#31=DRAUGHTING_PRE_DEFINED_COLOUR('white') ;
#53=EDGE_CURVE('',#50,#52,#48,.T.) ;
#60=EDGE_CURVE('',#50,#59,#57,.T.) ;
#67=EDGE_CURVE('',#59,#66,#64,.T.) ;
#72=EDGE_CURVE('',#52,#66,#71,.T.) ;
#91=EDGE_CURVE('',#59,#90,#88,.F.) ;
#98=EDGE_CURVE('',#90,#97,#95,.T.) ;
#103=EDGE_CURVE('',#66,#97,#102,.F.) ;
#122=EDGE_CURVE('',#90,#121,#119,.T.) ;
#129=EDGE_CURVE('',#121,#128,#126,.T.) ;
#134=EDGE_CURVE('',#97,#128,#133,.T.) ;
#151=EDGE_CURVE('',#121,#50,#150,.F.) ;
#156=EDGE_CURVE('',#128,#52,#155,.F.) ;
#234=EDGE_CURVE('',#231,#233,#229,.T.) ;
#241=EDGE_CURVE('',#231,#240,#238,.T.) ;
#248=EDGE_CURVE('',#240,#247,#245,.T.) ;
#253=EDGE_CURVE('',#233,#247,#252,.T.) ;
#272=EDGE_CURVE('',#240,#271,#269,.F.) ;
#279=EDGE_CURVE('',#271,#278,#276,.T.) ;
#284=EDGE_CURVE('',#247,#278,#283,.F.) ;
#303=EDGE_CURVE('',#271,#302,#300,.T.) ;
#310=EDGE_CURVE('',#302,#309,#307,.T.) ;
#315=EDGE_CURVE('',#278,#309,#314,.T.) ;
#332=EDGE_CURVE('',#302,#231,#331,.F.) ;
#337=EDGE_CURVE('',#309,#233,#336,.F.) ;
#415=EDGE_CURVE('',#412,#414,#410,.T.) ;
#422=EDGE_CURVE('',#412,#421,#419,.T.) ;
#429=EDGE_CURVE('',#421,#428,#426,.T.) ;
#434=EDGE_CURVE('',#414,#428,#433,.T.) ;
#453=EDGE_CURVE('',#421,#452,#450,.T.) ;
#460=EDGE_CURVE('',#452,#459,#457,.T.) ;
#465=EDGE_CURVE('',#428,#459,#464,.T.) ;
#484=EDGE_CURVE('',#483,#459,#481,.T.) ;
#491=EDGE_CURVE('',#490,#452,#488,.T.) ;
#496=EDGE_CURVE('',#490,#483,#495,.T.) ;
#513=EDGE_CURVE('',#490,#412,#512,.T.) ;
#518=EDGE_CURVE('',#483,#414,#517,.T.) ;
#73=EDGE_LOOP('',(#74,#75,#76,#77)) ;
#104=EDGE_LOOP('',(#105,#106,#107,#108)) ;
#135=EDGE_LOOP('',(#136,#137,#138,#139)) ;
#157=EDGE_LOOP('',(#158,#159,#160,#161)) ;
#169=EDGE_LOOP('',(#170,#171,#172,#173)) ;
#181=EDGE_LOOP('',(#182,#183,#184,#185)) ;
#254=EDGE_LOOP('',(#255,#256,#257,#258)) ;
#285=EDGE_LOOP('',(#286,#287,#288,#289)) ;
#316=EDGE_LOOP('',(#317,#318,#319,#320)) ;
#338=EDGE_LOOP('',(#339,#340,#341,#342)) ;
#350=EDGE_LOOP('',(#351,#352,#353,#354)) ;
#362=EDGE_LOOP('',(#363,#364,#365,#366)) ;
#435=EDGE_LOOP('',(#436,#437,#438,#439)) ;
#466=EDGE_LOOP('',(#467,#468,#469,#470)) ;
#497=EDGE_LOOP('',(#498,#499,#500,#501)) ;
#519=EDGE_LOOP('',(#520,#521,#522,#523)) ;
#531=EDGE_LOOP('',(#532,#533,#534,#535)) ;
#543=EDGE_LOOP('',(#544,#545,#546,#547)) ;
#78=FACE_OUTER_BOUND('',#73,.T.) ;
#109=FACE_OUTER_BOUND('',#104,.T.) ;
#140=FACE_OUTER_BOUND('',#135,.T.) ;
#162=FACE_OUTER_BOUND('',#157,.T.) ;
#174=FACE_OUTER_BOUND('',#169,.T.) ;
#186=FACE_OUTER_BOUND('',#181,.T.) ;
#259=FACE_OUTER_BOUND('',#254,.T.) ;
#290=FACE_OUTER_BOUND('',#285,.T.) ;
#321=FACE_OUTER_BOUND('',#316,.T.) ;
#343=FACE_OUTER_BOUND('',#338,.T.) ;
#355=FACE_OUTER_BOUND('',#350,.T.) ;
#367=FACE_OUTER_BOUND('',#362,.T.) ;
#440=FACE_OUTER_BOUND('',#435,.T.) ;
#471=FACE_OUTER_BOUND('',#466,.T.) ;
#502=FACE_OUTER_BOUND('',#497,.T.) ;
#524=FACE_OUTER_BOUND('',#519,.T.) ;
#536=FACE_OUTER_BOUND('',#531,.T.) ;
#548=FACE_OUTER_BOUND('',#543,.T.) ;
#48=LINE('Line',#45,#47) ;
#57=LINE('Line',#54,#56) ;
#64=LINE('Line',#61,#63) ;
#71=LINE('Line',#68,#70) ;
#88=LINE('Line',#85,#87) ;
#95=LINE('Line',#92,#94) ;
#102=LINE('Line',#99,#101) ;
#119=LINE('Line',#116,#118) ;
#126=LINE('Line',#123,#125) ;
#133=LINE('Line',#130,#132) ;
#150=LINE('Line',#147,#149) ;
#155=LINE('Line',#152,#154) ;
#229=LINE('Line',#226,#228) ;
#238=LINE('Line',#235,#237) ;
#245=LINE('Line',#242,#244) ;
#252=LINE('Line',#249,#251) ;
#269=LINE('Line',#266,#268) ;
#276=LINE('Line',#273,#275) ;
#283=LINE('Line',#280,#282) ;
#300=LINE('Line',#297,#299) ;
#307=LINE('Line',#304,#306) ;
#314=LINE('Line',#311,#313) ;
#331=LINE('Line',#328,#330) ;
#336=LINE('Line',#333,#335) ;
#410=LINE('Line',#407,#409) ;
#419=LINE('Line',#416,#418) ;
#426=LINE('Line',#423,#425) ;
#433=LINE('Line',#430,#432) ;
#450=LINE('Line',#447,#449) ;
#457=LINE('Line',#454,#456) ;
#464=LINE('Line',#461,#463) ;
#481=LINE('Line',#478,#480) ;
#488=LINE('Line',#485,#487) ;
#495=LINE('Line',#492,#494) ;
#512=LINE('Line',#509,#511) ;
#517=LINE('Line',#514,#516) ;
#190=NEXT_ASSEMBLY_USAGE_OCCURRENCE('D006095','D006095','',#13,#28,'D006095') ;
#371=NEXT_ASSEMBLY_USAGE_OCCURRENCE('D006098','D006098','',#13,#209,'D006098') ;
#552=NEXT_ASSEMBLY_USAGE_OCCURRENCE('NT00008.1','NT00008.1','',#13,#390,'NT00008.1') ;
#565=NEXT_ASSEMBLY_USAGE_OCCURRENCE('NT00008.2','NT00008.2','',#13,#390,'NT00008.2') ;
#578=NEXT_ASSEMBLY_USAGE_OCCURRENCE('NT00008.3','NT00008.3','',#13,#390,'NT00008.3') ;
#591=NEXT_ASSEMBLY_USAGE_OCCURRENCE('NT00008.4','NT00008.4','',#13,#390,'NT00008.4') ;
#44=PLANE('',#43) ;
#84=PLANE('',#83) ;
#115=PLANE('',#114) ;
#146=PLANE('',#145) ;
#168=PLANE('',#167) ;
#180=PLANE('',#179) ;
#225=PLANE('',#224) ;
#265=PLANE('',#264) ;
#296=PLANE('',#295) ;
#327=PLANE('',#326) ;
#349=PLANE('',#348) ;
#361=PLANE('',#360) ;
#406=PLANE('',#405) ;
#446=PLANE('',#445) ;
#477=PLANE('',#476) ;
#508=PLANE('',#507) ;
#530=PLANE('',#529) ;
#542=PLANE('',#541) ;
#9=PRODUCT_CATEGORY_RELATIONSHIP(' ',' ',#7,#8) ;
#12=PRODUCT_CATEGORY_RELATIONSHIP(' ',' ',#10,#11) ;
#6=PRODUCT_DEFINITION_FORMATION_WITH_SPECIFIED_SOURCE('03',' ',#5,.NOT_KNOWN.) ;
#27=PRODUCT_DEFINITION_FORMATION_WITH_SPECIFIED_SOURCE('08',' ',#26,.NOT_KNOWN.) ;
#208=PRODUCT_DEFINITION_FORMATION_WITH_SPECIFIED_SOURCE('06',' ',#207,.NOT_KNOWN.) ;
#389=PRODUCT_DEFINITION_FORMATION_WITH_SPECIFIED_SOURCE('1',' ',#388,.NOT_KNOWN.) ;
#14=SHAPE_DEFINITION_REPRESENTATION(#16,#15) ;
#25=SHAPE_DEFINITION_REPRESENTATION(#29,#24) ;
#206=SHAPE_DEFINITION_REPRESENTATION(#210,#205) ;
#387=SHAPE_DEFINITION_REPRESENTATION(#391,#386) ;
#50=VERTEX_POINT('',#49) ;
#52=VERTEX_POINT('',#51) ;
#59=VERTEX_POINT('',#58) ;
#66=VERTEX_POINT('',#65) ;
#90=VERTEX_POINT('',#89) ;
#97=VERTEX_POINT('',#96) ;
#121=VERTEX_POINT('',#120) ;
#128=VERTEX_POINT('',#127) ;
#231=VERTEX_POINT('',#230) ;
#233=VERTEX_POINT('',#232) ;
#240=VERTEX_POINT('',#239) ;
#247=VERTEX_POINT('',#246) ;
#271=VERTEX_POINT('',#270) ;
#278=VERTEX_POINT('',#277) ;
#302=VERTEX_POINT('',#301) ;
#309=VERTEX_POINT('',#308) ;
#412=VERTEX_POINT('',#411) ;
#414=VERTEX_POINT('',#413) ;
#421=VERTEX_POINT('',#420) ;
#428=VERTEX_POINT('',#427) ;
#452=VERTEX_POINT('',#451) ;
#459=VERTEX_POINT('',#458) ;
#483=VERTEX_POINT('',#482) ;
#490=VERTEX_POINT('',#489) ;
#17=(LENGTH_UNIT()NAMED_UNIT(*)SI_UNIT(.MILLI.,.METRE.)) ;
#18=(NAMED_UNIT(*)PLANE_ANGLE_UNIT()SI_UNIT($,.RADIAN.)) ;
#19=(NAMED_UNIT(*)SI_UNIT($,.STERADIAN.)SOLID_ANGLE_UNIT()) ;
#21=(GEOMETRIC_REPRESENTATION_CONTEXT(3)GLOBAL_UNCERTAINTY_ASSIGNED_CONTEXT((#20))GLOBAL_UNIT_ASSIGNED_CONTEXT((#17,#18,#19))REPRESENTATION_CONTEXT(' ',' ')) ;
#23=(GEOMETRIC_REPRESENTATION_CONTEXT(3)GLOBAL_UNCERTAINTY_ASSIGNED_CONTEXT((#22))GLOBAL_UNIT_ASSIGNED_CONTEXT((#17,#18,#19))REPRESENTATION_CONTEXT(' ',' ')) ;
#204=(GEOMETRIC_REPRESENTATION_CONTEXT(3)GLOBAL_UNCERTAINTY_ASSIGNED_CONTEXT((#203))GLOBAL_UNIT_ASSIGNED_CONTEXT((#17,#18,#19))REPRESENTATION_CONTEXT(' ',' ')) ;
#385=(GEOMETRIC_REPRESENTATION_CONTEXT(3)GLOBAL_UNCERTAINTY_ASSIGNED_CONTEXT((#384))GLOBAL_UNIT_ASSIGNED_CONTEXT((#17,#18,#19))REPRESENTATION_CONTEXT(' ',' ')) ;
#193=(REPRESENTATION_RELATIONSHIP(' ',' ',#24,#15)REPRESENTATION_RELATIONSHIP_WITH_TRANSFORMATION(#194)SHAPE_REPRESENTATION_RELATIONSHIP()) ;
#374=(REPRESENTATION_RELATIONSHIP(' ',' ',#205,#15)REPRESENTATION_RELATIONSHIP_WITH_TRANSFORMATION(#375)SHAPE_REPRESENTATION_RELATIONSHIP()) ;
#555=(REPRESENTATION_RELATIONSHIP(' ',' ',#386,#15)REPRESENTATION_RELATIONSHIP_WITH_TRANSFORMATION(#556)SHAPE_REPRESENTATION_RELATIONSHIP()) ;
#568=(REPRESENTATION_RELATIONSHIP(' ',' ',#386,#15)REPRESENTATION_RELATIONSHIP_WITH_TRANSFORMATION(#569)SHAPE_REPRESENTATION_RELATIONSHIP()) ;
#581=(REPRESENTATION_RELATIONSHIP(' ',' ',#386,#15)REPRESENTATION_RELATIONSHIP_WITH_TRANSFORMATION(#582)SHAPE_REPRESENTATION_RELATIONSHIP()) ;
#594=(REPRESENTATION_RELATIONSHIP(' ',' ',#386,#15)REPRESENTATION_RELATIONSHIP_WITH_TRANSFORMATION(#595)SHAPE_REPRESENTATION_RELATIONSHIP()) ;
ENDSEC;
END-ISO-10303-21;
