ISO-10303-21;
HEADER;
FILE_DESCRIPTION(('CATIA V5 STEP Exchange','CAx-IF Rec.Pracs.--- Model Styling and Organization---1.2---2011-12-15'),'2;1');

FILE_NAME('\\\\Datfrsil001\\i_ios\\&PI - IOS   Boites de sol\\&RV - Boite sol Finition standard T2 T2'' T3\\BEP\\Pour Marketing_02-11-2017\\088016.stp','2017-11-02T14:25:18+00:00',('none'),('none'),'CATIA Version 5-6 Release 2014 SP4','CATIA V5 STEP AP214','none');

FILE_SCHEMA(('AUTOMOTIVE_DESIGN { 1 0 10303 214 1 1 1 1 }'));

ENDSEC;
DATA;
#5=PRODUCT('A013117_A-ASS-01','','',(#2)) ;
#26=PRODUCT('D008691','','',(#2)) ;
#207=PRODUCT('D000054_A','','adh\X2\00E9\X0\sif double face',(#2)) ;
#420=PRODUCT('D008694','','',(#2)) ;
#2=PRODUCT_CONTEXT(' ',#1,'mechanical') ;
#1=APPLICATION_CONTEXT('automotive design') ;
#13=PRODUCT_DEFINITION('',' ',#6,#3) ;
#28=PRODUCT_DEFINITION('',' ',#27,#3) ;
#209=PRODUCT_DEFINITION('',' ',#208,#3) ;
#422=PRODUCT_DEFINITION('',' ',#421,#3) ;
#3=PRODUCT_DEFINITION_CONTEXT('part definition',#1,' ') ;
#16=PRODUCT_DEFINITION_SHAPE(' ',' ',#13) ;
#29=PRODUCT_DEFINITION_SHAPE(' ',' ',#28) ;
#191=PRODUCT_DEFINITION_SHAPE(' ',' ',#190) ;
#210=PRODUCT_DEFINITION_SHAPE(' ',' ',#209) ;
#365=PRODUCT_DEFINITION_SHAPE(' ',' ',#364) ;
#378=PRODUCT_DEFINITION_SHAPE(' ',' ',#377) ;
#391=PRODUCT_DEFINITION_SHAPE(' ',' ',#390) ;
#404=PRODUCT_DEFINITION_SHAPE(' ',' ',#403) ;
#423=PRODUCT_DEFINITION_SHAPE(' ',' ',#422) ;
#578=PRODUCT_DEFINITION_SHAPE(' ',' ',#577) ;
#590=MECHANICAL_DESIGN_GEOMETRIC_PRESENTATION_REPRESENTATION(' ',(#38,#212,#425),#21) ;
#15=SHAPE_REPRESENTATION(' ',(#195,#369,#382,#395,#408,#582),#21) ;
#24=SHAPE_REPRESENTATION(' ',(#196),#23) ;
#205=SHAPE_REPRESENTATION(' ',(#370,#383,#396,#409),#204) ;
#418=SHAPE_REPRESENTATION(' ',(#583),#417) ;
#194=ITEM_DEFINED_TRANSFORMATION(' ',' ',#196,#195) ;
#368=ITEM_DEFINED_TRANSFORMATION(' ',' ',#370,#369) ;
#381=ITEM_DEFINED_TRANSFORMATION(' ',' ',#383,#382) ;
#394=ITEM_DEFINED_TRANSFORMATION(' ',' ',#396,#395) ;
#407=ITEM_DEFINED_TRANSFORMATION(' ',' ',#409,#408) ;
#581=ITEM_DEFINED_TRANSFORMATION(' ',' ',#583,#582) ;
#43=AXIS2_PLACEMENT_3D('Plane Axis2P3D',#40,#41,#42) ;
#83=AXIS2_PLACEMENT_3D('Plane Axis2P3D',#80,#81,#82) ;
#114=AXIS2_PLACEMENT_3D('Plane Axis2P3D',#111,#112,#113) ;
#145=AXIS2_PLACEMENT_3D('Plane Axis2P3D',#142,#143,#144) ;
#167=AXIS2_PLACEMENT_3D('Plane Axis2P3D',#164,#165,#166) ;
#179=AXIS2_PLACEMENT_3D('Plane Axis2P3D',#176,#177,#178) ;
#195=AXIS2_PLACEMENT_3D(' ',#198,#202,#201) ;
#196=AXIS2_PLACEMENT_3D(' ',#197,#200,#199) ;
#217=AXIS2_PLACEMENT_3D('Plane Axis2P3D',#214,#215,#216) ;
#257=AXIS2_PLACEMENT_3D('Plane Axis2P3D',#254,#255,#256) ;
#288=AXIS2_PLACEMENT_3D('Plane Axis2P3D',#285,#286,#287) ;
#319=AXIS2_PLACEMENT_3D('Plane Axis2P3D',#316,#317,#318) ;
#341=AXIS2_PLACEMENT_3D('Plane Axis2P3D',#338,#339,#340) ;
#353=AXIS2_PLACEMENT_3D('Plane Axis2P3D',#350,#351,#352) ;
#369=AXIS2_PLACEMENT_3D(' ',#372,#376,#375) ;
#370=AXIS2_PLACEMENT_3D(' ',#371,#374,#373) ;
#382=AXIS2_PLACEMENT_3D(' ',#385,#389,#388) ;
#383=AXIS2_PLACEMENT_3D(' ',#384,#387,#386) ;
#395=AXIS2_PLACEMENT_3D(' ',#398,#402,#401) ;
#396=AXIS2_PLACEMENT_3D(' ',#397,#400,#399) ;
#408=AXIS2_PLACEMENT_3D(' ',#411,#415,#414) ;
#409=AXIS2_PLACEMENT_3D(' ',#410,#413,#412) ;
#430=AXIS2_PLACEMENT_3D('Plane Axis2P3D',#427,#428,#429) ;
#470=AXIS2_PLACEMENT_3D('Plane Axis2P3D',#467,#468,#469) ;
#501=AXIS2_PLACEMENT_3D('Plane Axis2P3D',#498,#499,#500) ;
#532=AXIS2_PLACEMENT_3D('Plane Axis2P3D',#529,#530,#531) ;
#554=AXIS2_PLACEMENT_3D('Plane Axis2P3D',#551,#552,#553) ;
#566=AXIS2_PLACEMENT_3D('Plane Axis2P3D',#563,#564,#565) ;
#582=AXIS2_PLACEMENT_3D(' ',#585,#589,#588) ;
#583=AXIS2_PLACEMENT_3D(' ',#584,#587,#586) ;
#40=CARTESIAN_POINT('Axis2P3D Location',(-122.25,76.4,0.)) ;
#45=CARTESIAN_POINT('Line Origine',(-122.25,76.4,3.)) ;
#49=CARTESIAN_POINT('Vertex',(-122.25,76.4,0.)) ;
#51=CARTESIAN_POINT('Vertex',(-122.25,76.4,6.)) ;
#54=CARTESIAN_POINT('Line Origine',(-122.25,-1.,0.)) ;
#58=CARTESIAN_POINT('Vertex',(-122.25,-78.4,0.)) ;
#61=CARTESIAN_POINT('Line Origine',(-122.25,-78.4,3.)) ;
#65=CARTESIAN_POINT('Vertex',(-122.25,-78.4,6.)) ;
#68=CARTESIAN_POINT('Line Origine',(-122.25,-1.,6.)) ;
#80=CARTESIAN_POINT('Axis2P3D Location',(122.25,-78.4,0.)) ;
#85=CARTESIAN_POINT('Line Origine',(-1.42108547152E-014,-78.4,0.)) ;
#89=CARTESIAN_POINT('Vertex',(122.25,-78.4,0.)) ;
#92=CARTESIAN_POINT('Line Origine',(122.25,-78.4,3.)) ;
#96=CARTESIAN_POINT('Vertex',(122.25,-78.4,6.)) ;
#99=CARTESIAN_POINT('Line Origine',(-1.42108547152E-014,-78.4,6.)) ;
#111=CARTESIAN_POINT('Axis2P3D Location',(122.25,-78.4,0.)) ;
#116=CARTESIAN_POINT('Line Origine',(122.25,-1.,0.)) ;
#120=CARTESIAN_POINT('Vertex',(122.25,76.4,0.)) ;
#123=CARTESIAN_POINT('Line Origine',(122.25,76.4,3.)) ;
#127=CARTESIAN_POINT('Vertex',(122.25,76.4,6.)) ;
#130=CARTESIAN_POINT('Line Origine',(122.25,-1.,6.)) ;
#142=CARTESIAN_POINT('Axis2P3D Location',(-122.25,76.4,0.)) ;
#147=CARTESIAN_POINT('Line Origine',(1.42108547152E-014,76.4,0.)) ;
#152=CARTESIAN_POINT('Line Origine',(1.42108547152E-014,76.4,6.)) ;
#164=CARTESIAN_POINT('Axis2P3D Location',(0.,0.,0.)) ;
#176=CARTESIAN_POINT('Axis2P3D Location',(0.,0.,6.)) ;
#197=CARTESIAN_POINT('NONE',(0.,0.,0.)) ;
#198=CARTESIAN_POINT('NONE',(0.,0.,0.)) ;
#214=CARTESIAN_POINT('Axis2P3D Location',(200.000918768,-19.9977947568,8.881784197E-016)) ;
#219=CARTESIAN_POINT('Line Origine',(200.000918768,2.50220524316,8.881784197E-016)) ;
#223=CARTESIAN_POINT('Vertex',(200.000918768,-9.99779475684,8.881784197E-016)) ;
#225=CARTESIAN_POINT('Vertex',(200.000918768,15.0022052432,8.881784197E-016)) ;
#228=CARTESIAN_POINT('Line Origine',(100.000918768,-9.99779475685,8.881784197E-016)) ;
#232=CARTESIAN_POINT('Vertex',(0.000918767585911,-9.99779475685,8.881784197E-016)) ;
#235=CARTESIAN_POINT('Line Origine',(0.000918767585879,2.50220524315,8.881784197E-016)) ;
#239=CARTESIAN_POINT('Vertex',(0.000918767585871,15.0022052432,8.881784197E-016)) ;
#242=CARTESIAN_POINT('Line Origine',(100.000918768,15.0022052432,8.881784197E-016)) ;
#254=CARTESIAN_POINT('Axis2P3D Location',(0.000918767585928,-19.9977947568,8.881784197E-016)) ;
#259=CARTESIAN_POINT('Line Origine',(0.000918767585911,-9.99779475685,0.075)) ;
#263=CARTESIAN_POINT('Vertex',(0.000918767586048,-9.99779475685,0.15)) ;
#266=CARTESIAN_POINT('Line Origine',(0.000918767585891,2.50220524315,0.15)) ;
#270=CARTESIAN_POINT('Vertex',(0.000918767586008,15.0022052432,0.15)) ;
#273=CARTESIAN_POINT('Line Origine',(0.000918767585871,15.0022052432,0.075)) ;
#285=CARTESIAN_POINT('Axis2P3D Location',(200.000918768,-19.9977947568,0.15)) ;
#290=CARTESIAN_POINT('Line Origine',(100.000918768,15.0022052432,0.15)) ;
#294=CARTESIAN_POINT('Vertex',(200.000918768,15.0022052432,0.15)) ;
#297=CARTESIAN_POINT('Line Origine',(100.000918768,-9.99779475685,0.15)) ;
#301=CARTESIAN_POINT('Vertex',(200.000918768,-9.99779475684,0.15)) ;
#304=CARTESIAN_POINT('Line Origine',(200.000918768,2.50220524316,0.15)) ;
#316=CARTESIAN_POINT('Axis2P3D Location',(200.000918768,-19.9977947568,0.15)) ;
#321=CARTESIAN_POINT('Line Origine',(200.000918768,-9.99779475684,0.075)) ;
#326=CARTESIAN_POINT('Line Origine',(200.000918768,15.0022052432,0.075)) ;
#338=CARTESIAN_POINT('Axis2P3D Location',(1.21933713126E-014,-9.99779475685,0.)) ;
#350=CARTESIAN_POINT('Axis2P3D Location',(-2.83774739818E-014,15.0022052432,0.)) ;
#371=CARTESIAN_POINT('NONE',(0.,0.,0.)) ;
#372=CARTESIAN_POINT('NONE',(100.000918768,-53.3977947568,-0.21)) ;
#384=CARTESIAN_POINT('NONE',(0.,0.,0.)) ;
#385=CARTESIAN_POINT('NONE',(100.000918768,56.4022052432,-0.21)) ;
#397=CARTESIAN_POINT('NONE',(0.,0.,0.)) ;
#398=CARTESIAN_POINT('NONE',(99.9990089667,-55.9022052432,6.)) ;
#410=CARTESIAN_POINT('NONE',(0.,0.,0.)) ;
#411=CARTESIAN_POINT('NONE',(99.9990089667,53.9022052431,6.)) ;
#427=CARTESIAN_POINT('Axis2P3D Location',(-122.25,76.4,0.)) ;
#432=CARTESIAN_POINT('Line Origine',(-122.25,76.4,0.5)) ;
#436=CARTESIAN_POINT('Vertex',(-122.25,76.4,0.)) ;
#438=CARTESIAN_POINT('Vertex',(-122.25,76.4,1.)) ;
#441=CARTESIAN_POINT('Line Origine',(-122.25,-1.,0.)) ;
#445=CARTESIAN_POINT('Vertex',(-122.25,-78.4,0.)) ;
#448=CARTESIAN_POINT('Line Origine',(-122.25,-78.4,0.5)) ;
#452=CARTESIAN_POINT('Vertex',(-122.25,-78.4,1.)) ;
#455=CARTESIAN_POINT('Line Origine',(-122.25,-1.,1.)) ;
#467=CARTESIAN_POINT('Axis2P3D Location',(122.25,-78.4,0.)) ;
#472=CARTESIAN_POINT('Line Origine',(-1.42108547152E-014,-78.4,0.)) ;
#476=CARTESIAN_POINT('Vertex',(122.25,-78.4,0.)) ;
#479=CARTESIAN_POINT('Line Origine',(122.25,-78.4,0.5)) ;
#483=CARTESIAN_POINT('Vertex',(122.25,-78.4,1.)) ;
#486=CARTESIAN_POINT('Line Origine',(-1.42108547152E-014,-78.4,1.)) ;
#498=CARTESIAN_POINT('Axis2P3D Location',(122.25,-78.4,0.)) ;
#503=CARTESIAN_POINT('Line Origine',(122.25,-1.,0.)) ;
#507=CARTESIAN_POINT('Vertex',(122.25,76.4,0.)) ;
#510=CARTESIAN_POINT('Line Origine',(122.25,76.4,0.5)) ;
#514=CARTESIAN_POINT('Vertex',(122.25,76.4,1.)) ;
#517=CARTESIAN_POINT('Line Origine',(122.25,-1.,1.)) ;
#529=CARTESIAN_POINT('Axis2P3D Location',(-122.25,76.4,0.)) ;
#534=CARTESIAN_POINT('Line Origine',(1.42108547152E-014,76.4,0.)) ;
#539=CARTESIAN_POINT('Line Origine',(1.42108547152E-014,76.4,1.)) ;
#551=CARTESIAN_POINT('Axis2P3D Location',(0.,0.,0.)) ;
#563=CARTESIAN_POINT('Axis2P3D Location',(0.,0.,1.)) ;
#584=CARTESIAN_POINT('NONE',(0.,0.,0.)) ;
#585=CARTESIAN_POINT('NONE',(0.,0.,6.21)) ;
#41=DIRECTION('Axis2P3D Direction',(-1.,0.,0.)) ;
#42=DIRECTION('Axis2P3D XDirection',(0.,-1.,0.)) ;
#46=DIRECTION('Vector Direction',(0.,0.,1.)) ;
#55=DIRECTION('Vector Direction',(0.,-1.,0.)) ;
#62=DIRECTION('Vector Direction',(0.,0.,1.)) ;
#69=DIRECTION('Vector Direction',(0.,-1.,0.)) ;
#81=DIRECTION('Axis2P3D Direction',(0.,1.,-0.)) ;
#82=DIRECTION('Axis2P3D XDirection',(-1.,0.,0.)) ;
#86=DIRECTION('Vector Direction',(-1.,0.,0.)) ;
#93=DIRECTION('Vector Direction',(0.,0.,1.)) ;
#100=DIRECTION('Vector Direction',(-1.,0.,0.)) ;
#112=DIRECTION('Axis2P3D Direction',(1.,0.,0.)) ;
#113=DIRECTION('Axis2P3D XDirection',(0.,1.,0.)) ;
#117=DIRECTION('Vector Direction',(0.,1.,0.)) ;
#124=DIRECTION('Vector Direction',(0.,0.,1.)) ;
#131=DIRECTION('Vector Direction',(0.,1.,0.)) ;
#143=DIRECTION('Axis2P3D Direction',(0.,-1.,0.)) ;
#144=DIRECTION('Axis2P3D XDirection',(1.,0.,0.)) ;
#148=DIRECTION('Vector Direction',(1.,0.,0.)) ;
#153=DIRECTION('Vector Direction',(1.,0.,0.)) ;
#165=DIRECTION('Axis2P3D Direction',(0.,0.,1.)) ;
#166=DIRECTION('Axis2P3D XDirection',(1.,0.,0.)) ;
#177=DIRECTION('Axis2P3D Direction',(0.,0.,1.)) ;
#178=DIRECTION('Axis2P3D XDirection',(1.,0.,0.)) ;
#199=DIRECTION('NONE',(1.,0.,0.)) ;
#200=DIRECTION('NONE',(0.,0.,1.)) ;
#201=DIRECTION('NONE',(1.,0.,0.)) ;
#202=DIRECTION('NONE',(0.,0.,1.)) ;
#215=DIRECTION('Axis2P3D Direction',(-0.,0.,-1.)) ;
#216=DIRECTION('Axis2P3D XDirection',(-1.,-1.62283381178E-015,0.)) ;
#220=DIRECTION('Vector Direction',(-1.13686837722E-015,1.,0.)) ;
#229=DIRECTION('Vector Direction',(-1.,-1.61648472385E-015,0.)) ;
#236=DIRECTION('Vector Direction',(-1.62283381178E-015,1.,0.)) ;
#243=DIRECTION('Vector Direction',(-1.,-1.61648472385E-015,0.)) ;
#255=DIRECTION('Axis2P3D Direction',(-1.,-1.62283381178E-015,0.)) ;
#256=DIRECTION('Axis2P3D XDirection',(0.,0.,1.)) ;
#260=DIRECTION('Vector Direction',(0.,0.,1.)) ;
#267=DIRECTION('Vector Direction',(-1.62283381178E-015,1.,0.)) ;
#274=DIRECTION('Vector Direction',(0.,0.,1.)) ;
#286=DIRECTION('Axis2P3D Direction',(-0.,0.,-1.)) ;
#287=DIRECTION('Axis2P3D XDirection',(-1.,-1.62283381178E-015,0.)) ;
#291=DIRECTION('Vector Direction',(-1.,-1.61648472385E-015,0.)) ;
#298=DIRECTION('Vector Direction',(-1.,-1.61648472385E-015,0.)) ;
#305=DIRECTION('Vector Direction',(-1.13686837722E-015,1.,0.)) ;
#317=DIRECTION('Axis2P3D Direction',(1.,1.62283381178E-015,0.)) ;
#318=DIRECTION('Axis2P3D XDirection',(0.,0.,-1.)) ;
#322=DIRECTION('Vector Direction',(0.,0.,-1.)) ;
#327=DIRECTION('Vector Direction',(0.,0.,-1.)) ;
#339=DIRECTION('Axis2P3D Direction',(-1.62283381178E-015,1.,0.)) ;
#340=DIRECTION('Axis2P3D XDirection',(-1.,-1.62283381178E-015,0.)) ;
#351=DIRECTION('Axis2P3D Direction',(-1.62283381178E-015,1.,0.)) ;
#352=DIRECTION('Axis2P3D XDirection',(-1.,-1.62283381178E-015,0.)) ;
#373=DIRECTION('NONE',(1.,0.,0.)) ;
#374=DIRECTION('NONE',(0.,0.,1.)) ;
#375=DIRECTION('NONE',(-1.,0.,0.)) ;
#376=DIRECTION('NONE',(0.,0.,1.)) ;
#386=DIRECTION('NONE',(1.,0.,0.)) ;
#387=DIRECTION('NONE',(0.,0.,1.)) ;
#388=DIRECTION('NONE',(-1.,3.46944695195E-018,0.)) ;
#389=DIRECTION('NONE',(0.,0.,1.)) ;
#399=DIRECTION('NONE',(1.,0.,0.)) ;
#400=DIRECTION('NONE',(0.,0.,1.)) ;
#401=DIRECTION('NONE',(-1.,0.,0.)) ;
#402=DIRECTION('NONE',(0.,0.,1.)) ;
#412=DIRECTION('NONE',(1.,0.,0.)) ;
#413=DIRECTION('NONE',(0.,0.,1.)) ;
#414=DIRECTION('NONE',(-1.,0.,0.)) ;
#415=DIRECTION('NONE',(0.,0.,1.)) ;
#428=DIRECTION('Axis2P3D Direction',(-1.,0.,0.)) ;
#429=DIRECTION('Axis2P3D XDirection',(0.,-1.,0.)) ;
#433=DIRECTION('Vector Direction',(0.,0.,1.)) ;
#442=DIRECTION('Vector Direction',(0.,-1.,0.)) ;
#449=DIRECTION('Vector Direction',(0.,0.,1.)) ;
#456=DIRECTION('Vector Direction',(0.,-1.,0.)) ;
#468=DIRECTION('Axis2P3D Direction',(0.,1.,-0.)) ;
#469=DIRECTION('Axis2P3D XDirection',(-1.,0.,0.)) ;
#473=DIRECTION('Vector Direction',(-1.,0.,0.)) ;
#480=DIRECTION('Vector Direction',(0.,0.,1.)) ;
#487=DIRECTION('Vector Direction',(-1.,0.,0.)) ;
#499=DIRECTION('Axis2P3D Direction',(1.,0.,0.)) ;
#500=DIRECTION('Axis2P3D XDirection',(0.,1.,0.)) ;
#504=DIRECTION('Vector Direction',(0.,1.,0.)) ;
#511=DIRECTION('Vector Direction',(0.,0.,1.)) ;
#518=DIRECTION('Vector Direction',(0.,1.,0.)) ;
#530=DIRECTION('Axis2P3D Direction',(0.,-1.,0.)) ;
#531=DIRECTION('Axis2P3D XDirection',(1.,0.,0.)) ;
#535=DIRECTION('Vector Direction',(1.,0.,0.)) ;
#540=DIRECTION('Vector Direction',(1.,0.,0.)) ;
#552=DIRECTION('Axis2P3D Direction',(0.,0.,1.)) ;
#553=DIRECTION('Axis2P3D XDirection',(1.,0.,0.)) ;
#564=DIRECTION('Axis2P3D Direction',(0.,0.,1.)) ;
#565=DIRECTION('Axis2P3D XDirection',(1.,0.,0.)) ;
#586=DIRECTION('NONE',(1.,0.,0.)) ;
#587=DIRECTION('NONE',(0.,0.,1.)) ;
#588=DIRECTION('NONE',(1.,0.,0.)) ;
#589=DIRECTION('NONE',(0.,0.,1.)) ;
#8=PRODUCT_RELATED_PRODUCT_CATEGORY('part',$,(#26,#207,#420)) ;
#11=PRODUCT_RELATED_PRODUCT_CATEGORY('part',$,(#5)) ;
#7=PRODUCT_CATEGORY('part','specification') ;
#10=PRODUCT_CATEGORY('part','specification') ;
#38=STYLED_ITEM(' ',(#37),#30) ;
#212=STYLED_ITEM(' ',(#37),#211) ;
#425=STYLED_ITEM(' ',(#37),#424) ;
#37=PRESENTATION_STYLE_ASSIGNMENT((#36)) ;
#36=SURFACE_STYLE_USAGE(.BOTH.,#35) ;
#35=SURFACE_SIDE_STYLE(' ',(#34)) ;
#34=SURFACE_STYLE_FILL_AREA(#33) ;
#33=FILL_AREA_STYLE(' ',(#32)) ;
#32=FILL_AREA_STYLE_COLOUR(' ',#31) ;
#47=VECTOR('Line Direction',#46,1.) ;
#56=VECTOR('Line Direction',#55,1.) ;
#63=VECTOR('Line Direction',#62,1.) ;
#70=VECTOR('Line Direction',#69,1.) ;
#87=VECTOR('Line Direction',#86,1.) ;
#94=VECTOR('Line Direction',#93,1.) ;
#101=VECTOR('Line Direction',#100,1.) ;
#118=VECTOR('Line Direction',#117,1.) ;
#125=VECTOR('Line Direction',#124,1.) ;
#132=VECTOR('Line Direction',#131,1.) ;
#149=VECTOR('Line Direction',#148,1.) ;
#154=VECTOR('Line Direction',#153,1.) ;
#221=VECTOR('Line Direction',#220,1.) ;
#230=VECTOR('Line Direction',#229,1.) ;
#237=VECTOR('Line Direction',#236,1.) ;
#244=VECTOR('Line Direction',#243,1.) ;
#261=VECTOR('Line Direction',#260,1.) ;
#268=VECTOR('Line Direction',#267,1.) ;
#275=VECTOR('Line Direction',#274,1.) ;
#292=VECTOR('Line Direction',#291,1.) ;
#299=VECTOR('Line Direction',#298,1.) ;
#306=VECTOR('Line Direction',#305,1.) ;
#323=VECTOR('Line Direction',#322,1.) ;
#328=VECTOR('Line Direction',#327,1.) ;
#434=VECTOR('Line Direction',#433,1.) ;
#443=VECTOR('Line Direction',#442,1.) ;
#450=VECTOR('Line Direction',#449,1.) ;
#457=VECTOR('Line Direction',#456,1.) ;
#474=VECTOR('Line Direction',#473,1.) ;
#481=VECTOR('Line Direction',#480,1.) ;
#488=VECTOR('Line Direction',#487,1.) ;
#505=VECTOR('Line Direction',#504,1.) ;
#512=VECTOR('Line Direction',#511,1.) ;
#519=VECTOR('Line Direction',#518,1.) ;
#536=VECTOR('Line Direction',#535,1.) ;
#541=VECTOR('Line Direction',#540,1.) ;
#20=UNCERTAINTY_MEASURE_WITH_UNIT(LENGTH_MEASURE(0.005),#17,'distance_accuracy_value','CONFUSED CURVE UNCERTAINTY') ;
#22=UNCERTAINTY_MEASURE_WITH_UNIT(LENGTH_MEASURE(0.005),#17,'distance_accuracy_value','CONFUSED CURVE UNCERTAINTY') ;
#203=UNCERTAINTY_MEASURE_WITH_UNIT(LENGTH_MEASURE(0.005),#17,'distance_accuracy_value','CONFUSED CURVE UNCERTAINTY') ;
#416=UNCERTAINTY_MEASURE_WITH_UNIT(LENGTH_MEASURE(0.005),#17,'distance_accuracy_value','CONFUSED CURVE UNCERTAINTY') ;
#192=CONTEXT_DEPENDENT_SHAPE_REPRESENTATION(#193,#191) ;
#366=CONTEXT_DEPENDENT_SHAPE_REPRESENTATION(#367,#365) ;
#379=CONTEXT_DEPENDENT_SHAPE_REPRESENTATION(#380,#378) ;
#392=CONTEXT_DEPENDENT_SHAPE_REPRESENTATION(#393,#391) ;
#405=CONTEXT_DEPENDENT_SHAPE_REPRESENTATION(#406,#404) ;
#579=CONTEXT_DEPENDENT_SHAPE_REPRESENTATION(#580,#578) ;
#189=SHAPE_REPRESENTATION_RELATIONSHIP(' ',' ',#24,#188) ;
#363=SHAPE_REPRESENTATION_RELATIONSHIP(' ',' ',#205,#362) ;
#576=SHAPE_REPRESENTATION_RELATIONSHIP(' ',' ',#418,#575) ;
#74=ORIENTED_EDGE('',*,*,#53,.F.) ;
#75=ORIENTED_EDGE('',*,*,#60,.T.) ;
#76=ORIENTED_EDGE('',*,*,#67,.T.) ;
#77=ORIENTED_EDGE('',*,*,#72,.F.) ;
#105=ORIENTED_EDGE('',*,*,#67,.F.) ;
#106=ORIENTED_EDGE('',*,*,#91,.T.) ;
#107=ORIENTED_EDGE('',*,*,#98,.T.) ;
#108=ORIENTED_EDGE('',*,*,#103,.F.) ;
#136=ORIENTED_EDGE('',*,*,#98,.F.) ;
#137=ORIENTED_EDGE('',*,*,#122,.T.) ;
#138=ORIENTED_EDGE('',*,*,#129,.T.) ;
#139=ORIENTED_EDGE('',*,*,#134,.F.) ;
#158=ORIENTED_EDGE('',*,*,#129,.F.) ;
#159=ORIENTED_EDGE('',*,*,#151,.T.) ;
#160=ORIENTED_EDGE('',*,*,#53,.T.) ;
#161=ORIENTED_EDGE('',*,*,#156,.F.) ;
#170=ORIENTED_EDGE('',*,*,#151,.F.) ;
#171=ORIENTED_EDGE('',*,*,#122,.F.) ;
#172=ORIENTED_EDGE('',*,*,#91,.F.) ;
#173=ORIENTED_EDGE('',*,*,#60,.F.) ;
#182=ORIENTED_EDGE('',*,*,#72,.T.) ;
#183=ORIENTED_EDGE('',*,*,#103,.T.) ;
#184=ORIENTED_EDGE('',*,*,#134,.T.) ;
#185=ORIENTED_EDGE('',*,*,#156,.T.) ;
#248=ORIENTED_EDGE('',*,*,#227,.F.) ;
#249=ORIENTED_EDGE('',*,*,#234,.T.) ;
#250=ORIENTED_EDGE('',*,*,#241,.T.) ;
#251=ORIENTED_EDGE('',*,*,#246,.F.) ;
#279=ORIENTED_EDGE('',*,*,#241,.F.) ;
#280=ORIENTED_EDGE('',*,*,#265,.T.) ;
#281=ORIENTED_EDGE('',*,*,#272,.T.) ;
#282=ORIENTED_EDGE('',*,*,#277,.F.) ;
#310=ORIENTED_EDGE('',*,*,#296,.T.) ;
#311=ORIENTED_EDGE('',*,*,#272,.F.) ;
#312=ORIENTED_EDGE('',*,*,#303,.F.) ;
#313=ORIENTED_EDGE('',*,*,#308,.T.) ;
#332=ORIENTED_EDGE('',*,*,#308,.F.) ;
#333=ORIENTED_EDGE('',*,*,#325,.T.) ;
#334=ORIENTED_EDGE('',*,*,#227,.T.) ;
#335=ORIENTED_EDGE('',*,*,#330,.F.) ;
#344=ORIENTED_EDGE('',*,*,#325,.F.) ;
#345=ORIENTED_EDGE('',*,*,#303,.T.) ;
#346=ORIENTED_EDGE('',*,*,#265,.F.) ;
#347=ORIENTED_EDGE('',*,*,#234,.F.) ;
#356=ORIENTED_EDGE('',*,*,#246,.T.) ;
#357=ORIENTED_EDGE('',*,*,#277,.T.) ;
#358=ORIENTED_EDGE('',*,*,#296,.F.) ;
#359=ORIENTED_EDGE('',*,*,#330,.T.) ;
#461=ORIENTED_EDGE('',*,*,#440,.F.) ;
#462=ORIENTED_EDGE('',*,*,#447,.T.) ;
#463=ORIENTED_EDGE('',*,*,#454,.T.) ;
#464=ORIENTED_EDGE('',*,*,#459,.F.) ;
#492=ORIENTED_EDGE('',*,*,#454,.F.) ;
#493=ORIENTED_EDGE('',*,*,#478,.T.) ;
#494=ORIENTED_EDGE('',*,*,#485,.T.) ;
#495=ORIENTED_EDGE('',*,*,#490,.F.) ;
#523=ORIENTED_EDGE('',*,*,#485,.F.) ;
#524=ORIENTED_EDGE('',*,*,#509,.T.) ;
#525=ORIENTED_EDGE('',*,*,#516,.T.) ;
#526=ORIENTED_EDGE('',*,*,#521,.F.) ;
#545=ORIENTED_EDGE('',*,*,#516,.F.) ;
#546=ORIENTED_EDGE('',*,*,#538,.T.) ;
#547=ORIENTED_EDGE('',*,*,#440,.T.) ;
#548=ORIENTED_EDGE('',*,*,#543,.F.) ;
#557=ORIENTED_EDGE('',*,*,#538,.F.) ;
#558=ORIENTED_EDGE('',*,*,#509,.F.) ;
#559=ORIENTED_EDGE('',*,*,#478,.F.) ;
#560=ORIENTED_EDGE('',*,*,#447,.F.) ;
#569=ORIENTED_EDGE('',*,*,#459,.T.) ;
#570=ORIENTED_EDGE('',*,*,#490,.T.) ;
#571=ORIENTED_EDGE('',*,*,#521,.T.) ;
#572=ORIENTED_EDGE('',*,*,#543,.T.) ;
#39=CLOSED_SHELL('Closed Shell',(#79,#110,#141,#163,#175,#187)) ;
#213=CLOSED_SHELL('Closed Shell',(#253,#284,#315,#337,#349,#361)) ;
#426=CLOSED_SHELL('Closed Shell',(#466,#497,#528,#550,#562,#574)) ;
#188=ADVANCED_BREP_SHAPE_REPRESENTATION('NONE',(#30),#23) ;
#362=ADVANCED_BREP_SHAPE_REPRESENTATION('NONE',(#211),#204) ;
#575=ADVANCED_BREP_SHAPE_REPRESENTATION('NONE',(#424),#417) ;
#79=ADVANCED_FACE('Corps principal',(#78),#44,.T.) ;
#110=ADVANCED_FACE('Corps principal',(#109),#84,.F.) ;
#141=ADVANCED_FACE('Corps principal',(#140),#115,.T.) ;
#163=ADVANCED_FACE('Corps principal',(#162),#146,.F.) ;
#175=ADVANCED_FACE('Corps principal',(#174),#168,.F.) ;
#187=ADVANCED_FACE('Corps principal',(#186),#180,.T.) ;
#253=ADVANCED_FACE('Corps de pi\X2\00E8\X0\ce.2',(#252),#218,.T.) ;
#284=ADVANCED_FACE('Corps de pi\X2\00E8\X0\ce.2',(#283),#258,.T.) ;
#315=ADVANCED_FACE('Corps de pi\X2\00E8\X0\ce.2',(#314),#289,.F.) ;
#337=ADVANCED_FACE('Corps de pi\X2\00E8\X0\ce.2',(#336),#320,.T.) ;
#349=ADVANCED_FACE('Corps de pi\X2\00E8\X0\ce.2',(#348),#342,.F.) ;
#361=ADVANCED_FACE('Corps de pi\X2\00E8\X0\ce.2',(#360),#354,.T.) ;
#466=ADVANCED_FACE('Corps principal',(#465),#431,.T.) ;
#497=ADVANCED_FACE('Corps principal',(#496),#471,.F.) ;
#528=ADVANCED_FACE('Corps principal',(#527),#502,.T.) ;
#550=ADVANCED_FACE('Corps principal',(#549),#533,.F.) ;
#562=ADVANCED_FACE('Corps principal',(#561),#555,.F.) ;
#574=ADVANCED_FACE('Corps principal',(#573),#567,.T.) ;
#4=APPLICATION_PROTOCOL_DEFINITION('international standard','automotive_design',2001,#1) ;
#30=MANIFOLD_SOLID_BREP('Corps principal',#39) ;
#211=MANIFOLD_SOLID_BREP('Corps de pi\X2\00E8\X0\ce.2',#213) ;
#424=MANIFOLD_SOLID_BREP('Corps principal',#426) ;
#31=COLOUR_RGB('Colour',0.823529411765,0.823529411765,1.) ;
#53=EDGE_CURVE('',#50,#52,#48,.T.) ;
#60=EDGE_CURVE('',#50,#59,#57,.T.) ;
#67=EDGE_CURVE('',#59,#66,#64,.T.) ;
#72=EDGE_CURVE('',#52,#66,#71,.T.) ;
#91=EDGE_CURVE('',#59,#90,#88,.F.) ;
#98=EDGE_CURVE('',#90,#97,#95,.T.) ;
#103=EDGE_CURVE('',#66,#97,#102,.F.) ;
#122=EDGE_CURVE('',#90,#121,#119,.T.) ;
#129=EDGE_CURVE('',#121,#128,#126,.T.) ;
#134=EDGE_CURVE('',#97,#128,#133,.T.) ;
#151=EDGE_CURVE('',#121,#50,#150,.F.) ;
#156=EDGE_CURVE('',#128,#52,#155,.F.) ;
#227=EDGE_CURVE('',#224,#226,#222,.T.) ;
#234=EDGE_CURVE('',#224,#233,#231,.T.) ;
#241=EDGE_CURVE('',#233,#240,#238,.T.) ;
#246=EDGE_CURVE('',#226,#240,#245,.T.) ;
#265=EDGE_CURVE('',#233,#264,#262,.T.) ;
#272=EDGE_CURVE('',#264,#271,#269,.T.) ;
#277=EDGE_CURVE('',#240,#271,#276,.T.) ;
#296=EDGE_CURVE('',#295,#271,#293,.T.) ;
#303=EDGE_CURVE('',#302,#264,#300,.T.) ;
#308=EDGE_CURVE('',#302,#295,#307,.T.) ;
#325=EDGE_CURVE('',#302,#224,#324,.T.) ;
#330=EDGE_CURVE('',#295,#226,#329,.T.) ;
#440=EDGE_CURVE('',#437,#439,#435,.T.) ;
#447=EDGE_CURVE('',#437,#446,#444,.T.) ;
#454=EDGE_CURVE('',#446,#453,#451,.T.) ;
#459=EDGE_CURVE('',#439,#453,#458,.T.) ;
#478=EDGE_CURVE('',#446,#477,#475,.F.) ;
#485=EDGE_CURVE('',#477,#484,#482,.T.) ;
#490=EDGE_CURVE('',#453,#484,#489,.F.) ;
#509=EDGE_CURVE('',#477,#508,#506,.T.) ;
#516=EDGE_CURVE('',#508,#515,#513,.T.) ;
#521=EDGE_CURVE('',#484,#515,#520,.T.) ;
#538=EDGE_CURVE('',#508,#437,#537,.F.) ;
#543=EDGE_CURVE('',#515,#439,#542,.F.) ;
#73=EDGE_LOOP('',(#74,#75,#76,#77)) ;
#104=EDGE_LOOP('',(#105,#106,#107,#108)) ;
#135=EDGE_LOOP('',(#136,#137,#138,#139)) ;
#157=EDGE_LOOP('',(#158,#159,#160,#161)) ;
#169=EDGE_LOOP('',(#170,#171,#172,#173)) ;
#181=EDGE_LOOP('',(#182,#183,#184,#185)) ;
#247=EDGE_LOOP('',(#248,#249,#250,#251)) ;
#278=EDGE_LOOP('',(#279,#280,#281,#282)) ;
#309=EDGE_LOOP('',(#310,#311,#312,#313)) ;
#331=EDGE_LOOP('',(#332,#333,#334,#335)) ;
#343=EDGE_LOOP('',(#344,#345,#346,#347)) ;
#355=EDGE_LOOP('',(#356,#357,#358,#359)) ;
#460=EDGE_LOOP('',(#461,#462,#463,#464)) ;
#491=EDGE_LOOP('',(#492,#493,#494,#495)) ;
#522=EDGE_LOOP('',(#523,#524,#525,#526)) ;
#544=EDGE_LOOP('',(#545,#546,#547,#548)) ;
#556=EDGE_LOOP('',(#557,#558,#559,#560)) ;
#568=EDGE_LOOP('',(#569,#570,#571,#572)) ;
#78=FACE_OUTER_BOUND('',#73,.T.) ;
#109=FACE_OUTER_BOUND('',#104,.T.) ;
#140=FACE_OUTER_BOUND('',#135,.T.) ;
#162=FACE_OUTER_BOUND('',#157,.T.) ;
#174=FACE_OUTER_BOUND('',#169,.T.) ;
#186=FACE_OUTER_BOUND('',#181,.T.) ;
#252=FACE_OUTER_BOUND('',#247,.T.) ;
#283=FACE_OUTER_BOUND('',#278,.T.) ;
#314=FACE_OUTER_BOUND('',#309,.T.) ;
#336=FACE_OUTER_BOUND('',#331,.T.) ;
#348=FACE_OUTER_BOUND('',#343,.T.) ;
#360=FACE_OUTER_BOUND('',#355,.T.) ;
#465=FACE_OUTER_BOUND('',#460,.T.) ;
#496=FACE_OUTER_BOUND('',#491,.T.) ;
#527=FACE_OUTER_BOUND('',#522,.T.) ;
#549=FACE_OUTER_BOUND('',#544,.T.) ;
#561=FACE_OUTER_BOUND('',#556,.T.) ;
#573=FACE_OUTER_BOUND('',#568,.T.) ;
#48=LINE('Line',#45,#47) ;
#57=LINE('Line',#54,#56) ;
#64=LINE('Line',#61,#63) ;
#71=LINE('Line',#68,#70) ;
#88=LINE('Line',#85,#87) ;
#95=LINE('Line',#92,#94) ;
#102=LINE('Line',#99,#101) ;
#119=LINE('Line',#116,#118) ;
#126=LINE('Line',#123,#125) ;
#133=LINE('Line',#130,#132) ;
#150=LINE('Line',#147,#149) ;
#155=LINE('Line',#152,#154) ;
#222=LINE('Line',#219,#221) ;
#231=LINE('Line',#228,#230) ;
#238=LINE('Line',#235,#237) ;
#245=LINE('Line',#242,#244) ;
#262=LINE('Line',#259,#261) ;
#269=LINE('Line',#266,#268) ;
#276=LINE('Line',#273,#275) ;
#293=LINE('Line',#290,#292) ;
#300=LINE('Line',#297,#299) ;
#307=LINE('Line',#304,#306) ;
#324=LINE('Line',#321,#323) ;
#329=LINE('Line',#326,#328) ;
#435=LINE('Line',#432,#434) ;
#444=LINE('Line',#441,#443) ;
#451=LINE('Line',#448,#450) ;
#458=LINE('Line',#455,#457) ;
#475=LINE('Line',#472,#474) ;
#482=LINE('Line',#479,#481) ;
#489=LINE('Line',#486,#488) ;
#506=LINE('Line',#503,#505) ;
#513=LINE('Line',#510,#512) ;
#520=LINE('Line',#517,#519) ;
#537=LINE('Line',#534,#536) ;
#542=LINE('Line',#539,#541) ;
#190=NEXT_ASSEMBLY_USAGE_OCCURRENCE('Part2.1','Part2.1','',#13,#28,'Part2.1') ;
#364=NEXT_ASSEMBLY_USAGE_OCCURRENCE('NT00008.1','NT00008.1','',#13,#209,'NT00008.1') ;
#377=NEXT_ASSEMBLY_USAGE_OCCURRENCE('NT00008.2','NT00008.2','',#13,#209,'NT00008.2') ;
#390=NEXT_ASSEMBLY_USAGE_OCCURRENCE('NT00008.3','NT00008.3','',#13,#209,'NT00008.3') ;
#403=NEXT_ASSEMBLY_USAGE_OCCURRENCE('NT00008.4','NT00008.4','',#13,#209,'NT00008.4') ;
#577=NEXT_ASSEMBLY_USAGE_OCCURRENCE('Part2.1.1','Part2.1.1','',#13,#422,'Part2.1.1') ;
#44=PLANE('',#43) ;
#84=PLANE('',#83) ;
#115=PLANE('',#114) ;
#146=PLANE('',#145) ;
#168=PLANE('',#167) ;
#180=PLANE('',#179) ;
#218=PLANE('',#217) ;
#258=PLANE('',#257) ;
#289=PLANE('',#288) ;
#320=PLANE('',#319) ;
#342=PLANE('',#341) ;
#354=PLANE('',#353) ;
#431=PLANE('',#430) ;
#471=PLANE('',#470) ;
#502=PLANE('',#501) ;
#533=PLANE('',#532) ;
#555=PLANE('',#554) ;
#567=PLANE('',#566) ;
#9=PRODUCT_CATEGORY_RELATIONSHIP(' ',' ',#7,#8) ;
#12=PRODUCT_CATEGORY_RELATIONSHIP(' ',' ',#10,#11) ;
#6=PRODUCT_DEFINITION_FORMATION_WITH_SPECIFIED_SOURCE('',' ',#5,.NOT_KNOWN.) ;
#27=PRODUCT_DEFINITION_FORMATION_WITH_SPECIFIED_SOURCE('',' ',#26,.NOT_KNOWN.) ;
#208=PRODUCT_DEFINITION_FORMATION_WITH_SPECIFIED_SOURCE('1',' ',#207,.NOT_KNOWN.) ;
#421=PRODUCT_DEFINITION_FORMATION_WITH_SPECIFIED_SOURCE('',' ',#420,.NOT_KNOWN.) ;
#14=SHAPE_DEFINITION_REPRESENTATION(#16,#15) ;
#25=SHAPE_DEFINITION_REPRESENTATION(#29,#24) ;
#206=SHAPE_DEFINITION_REPRESENTATION(#210,#205) ;
#419=SHAPE_DEFINITION_REPRESENTATION(#423,#418) ;
#50=VERTEX_POINT('',#49) ;
#52=VERTEX_POINT('',#51) ;
#59=VERTEX_POINT('',#58) ;
#66=VERTEX_POINT('',#65) ;
#90=VERTEX_POINT('',#89) ;
#97=VERTEX_POINT('',#96) ;
#121=VERTEX_POINT('',#120) ;
#128=VERTEX_POINT('',#127) ;
#224=VERTEX_POINT('',#223) ;
#226=VERTEX_POINT('',#225) ;
#233=VERTEX_POINT('',#232) ;
#240=VERTEX_POINT('',#239) ;
#264=VERTEX_POINT('',#263) ;
#271=VERTEX_POINT('',#270) ;
#295=VERTEX_POINT('',#294) ;
#302=VERTEX_POINT('',#301) ;
#437=VERTEX_POINT('',#436) ;
#439=VERTEX_POINT('',#438) ;
#446=VERTEX_POINT('',#445) ;
#453=VERTEX_POINT('',#452) ;
#477=VERTEX_POINT('',#476) ;
#484=VERTEX_POINT('',#483) ;
#508=VERTEX_POINT('',#507) ;
#515=VERTEX_POINT('',#514) ;
#17=(LENGTH_UNIT()NAMED_UNIT(*)SI_UNIT(.MILLI.,.METRE.)) ;
#18=(NAMED_UNIT(*)PLANE_ANGLE_UNIT()SI_UNIT($,.RADIAN.)) ;
#19=(NAMED_UNIT(*)SI_UNIT($,.STERADIAN.)SOLID_ANGLE_UNIT()) ;
#21=(GEOMETRIC_REPRESENTATION_CONTEXT(3)GLOBAL_UNCERTAINTY_ASSIGNED_CONTEXT((#20))GLOBAL_UNIT_ASSIGNED_CONTEXT((#17,#18,#19))REPRESENTATION_CONTEXT(' ',' ')) ;
#23=(GEOMETRIC_REPRESENTATION_CONTEXT(3)GLOBAL_UNCERTAINTY_ASSIGNED_CONTEXT((#22))GLOBAL_UNIT_ASSIGNED_CONTEXT((#17,#18,#19))REPRESENTATION_CONTEXT(' ',' ')) ;
#204=(GEOMETRIC_REPRESENTATION_CONTEXT(3)GLOBAL_UNCERTAINTY_ASSIGNED_CONTEXT((#203))GLOBAL_UNIT_ASSIGNED_CONTEXT((#17,#18,#19))REPRESENTATION_CONTEXT(' ',' ')) ;
#417=(GEOMETRIC_REPRESENTATION_CONTEXT(3)GLOBAL_UNCERTAINTY_ASSIGNED_CONTEXT((#416))GLOBAL_UNIT_ASSIGNED_CONTEXT((#17,#18,#19))REPRESENTATION_CONTEXT(' ',' ')) ;
#193=(REPRESENTATION_RELATIONSHIP(' ',' ',#24,#15)REPRESENTATION_RELATIONSHIP_WITH_TRANSFORMATION(#194)SHAPE_REPRESENTATION_RELATIONSHIP()) ;
#367=(REPRESENTATION_RELATIONSHIP(' ',' ',#205,#15)REPRESENTATION_RELATIONSHIP_WITH_TRANSFORMATION(#368)SHAPE_REPRESENTATION_RELATIONSHIP()) ;
#380=(REPRESENTATION_RELATIONSHIP(' ',' ',#205,#15)REPRESENTATION_RELATIONSHIP_WITH_TRANSFORMATION(#381)SHAPE_REPRESENTATION_RELATIONSHIP()) ;
#393=(REPRESENTATION_RELATIONSHIP(' ',' ',#205,#15)REPRESENTATION_RELATIONSHIP_WITH_TRANSFORMATION(#394)SHAPE_REPRESENTATION_RELATIONSHIP()) ;
#406=(REPRESENTATION_RELATIONSHIP(' ',' ',#205,#15)REPRESENTATION_RELATIONSHIP_WITH_TRANSFORMATION(#407)SHAPE_REPRESENTATION_RELATIONSHIP()) ;
#580=(REPRESENTATION_RELATIONSHIP(' ',' ',#418,#15)REPRESENTATION_RELATIONSHIP_WITH_TRANSFORMATION(#581)SHAPE_REPRESENTATION_RELATIONSHIP()) ;
ENDSEC;
END-ISO-10303-21;
